  0
SECTION
  2
HEADER
  9
$ACADVER
  1
AC1015
  9
$ACADMAINTVER
 70
    20
  9
$DWGCODEPAGE
  3
ANSI_932
  9
$INSBASE
 10
0.0
 20
0.0
 30
0.0
  9
$EXTMIN
 10
-0.0153662861657722
 20
-0.0106763278571407
 30
-0.0000000000112498
  9
$EXTMAX
 10
604.5030768511805
 20
420.0021377626068
 30
0.0000000000002956
  9
$LIMMIN
 10
0.0
 20
0.0
  9
$LIMMAX
 10
604.4999999999999
 20
420.0000000000001
  9
$ORTHOMODE
 70
     1
  9
$REGENMODE
 70
     1
  9
$FILLMODE
 70
     1
  9
$QTEXTMODE
 70
     0
  9
$MIRRTEXT
 70
     1
  9
$LTSCALE
 40
1.5
  9
$ATTMODE
 70
     1
  9
$TEXTSIZE
 40
73.98571745357912
  9
$TRACEWID
 40
1.0
  9
$TEXTSTYLE
  7
STANDARD
  9
$CLAYER
  8
0
  9
$CELTYPE
  6
ByLayer
  9
$CECOLOR
 62
   256
  9
$CELTSCALE
 40
1.0
  9
$DISPSILH
 70
     0
  9
$DIMSCALE
 40
1.0
  9
$DIMASZ
 40
2.5
  9
$DIMEXO
 40
1.0
  9
$DIMDLI
 40
10.0
  9
$DIMRND
 40
0.0
  9
$DIMDLE
 40
0.0
  9
$DIMEXE
 40
1.0
  9
$DIMTP
 40
0.1
  9
$DIMTM
 40
0.1
  9
$DIMTXT
 40
3.5
  9
$DIMCEN
 40
0.0
  9
$DIMTSZ
 40
0.0
  9
$DIMTOL
 70
     0
  9
$DIMLIM
 70
     0
  9
$DIMTIH
 70
     0
  9
$DIMTOH
 70
     0
  9
$DIMSE1
 70
     0
  9
$DIMSE2
 70
     0
  9
$DIMTAD
 70
     1
  9
$DIMZIN
 70
     8
  9
$DIMBLK
  1
Open30
  9
$DIMASO
 70
     1
  9
$DIMSHO
 70
     1
  9
$DIMPOST
  1

  9
$DIMAPOST
  1
"
  9
$DIMALT
 70
     0
  9
$DIMALTD
 70
     2
  9
$DIMALTF
 40
0.0393701
  9
$DIMLFAC
 40
1.0
  9
$DIMTOFL
 70
     1
  9
$DIMTVP
 40
0.0
  9
$DIMTIX
 70
     0
  9
$DIMSOXD
 70
     0
  9
$DIMSAH
 70
     0
  9
$DIMBLK1
  1

  9
$DIMBLK2
  1

  9
$DIMSTYLE
  2
AM_ISO
  9
$DIMCLRD
 70
   256
  9
$DIMCLRE
 70
   256
  9
$DIMCLRT
 70
     2
  9
$DIMTFAC
 40
0.71
  9
$DIMGAP
 40
1.5
  9
$DIMJUST
 70
     0
  9
$DIMSD1
 70
     0
  9
$DIMSD2
 70
     0
  9
$DIMTOLJ
 70
     0
  9
$DIMTZIN
 70
     8
  9
$DIMALTZ
 70
     0
  9
$DIMALTTZ
 70
     0
  9
$DIMUPT
 70
     0
  9
$DIMDEC
 70
     2
  9
$DIMTDEC
 70
     2
  9
$DIMALTU
 70
     2
  9
$DIMALTTD
 70
     2
  9
$DIMTXSTY
  7
STANDARD
  9
$DIMAUNIT
 70
     0
  9
$DIMADEC
 70
     0
  9
$DIMALTRND
 40
0.0
  9
$DIMAZIN
 70
     2
  9
$DIMDSEP
 70
    46
  9
$DIMATFIT
 70
     3
  9
$DIMFRAC
 70
     0
  9
$DIMLDRBLK
  1
Open30
  9
$DIMLUNIT
 70
     2
  9
$DIMLWD
 70
    -1
  9
$DIMLWE
 70
    -1
  9
$DIMTMOVE
 70
     0
  9
$LUNITS
 70
     2
  9
$LUPREC
 70
     2
  9
$SKETCHINC
 40
1.0
  9
$FILLETRAD
 40
0.0
  9
$AUNITS
 70
     0
  9
$AUPREC
 70
     0
  9
$MENU
  1
.
  9
$ELEVATION
 40
0.0
  9
$PELEVATION
 40
0.0
  9
$THICKNESS
 40
0.0
  9
$LIMCHECK
 70
     0
  9
$CHAMFERA
 40
3.75
  9
$CHAMFERB
 40
3.75
  9
$CHAMFERC
 40
20.0
  9
$CHAMFERD
 40
0.0
  9
$SKPOLY
 70
     0
  9
$TDCREATE
 40
2453707.637255498
  9
$TDUCREATE
 40
2453707.262255498
  9
$TDUPDATE
 40
2456304.686570995
  9
$TDUUPDATE
 40
2456304.311570995
  9
$TDINDWG
 40
0.1162541667
  9
$TDUSRTIMER
 40
0.1162541667
  9
$USRTIMER
 70
     1
  9
$ANGBASE
 50
0.0
  9
$ANGDIR
 70
     0
  9
$PDMODE
 70
     0
  9
$PDSIZE
 40
0.0
  9
$PLINEWID
 40
0.0
  9
$SPLFRAME
 70
     0
  9
$SPLINETYPE
 70
     6
  9
$SPLINESEGS
 70
     8
  9
$HANDSEED
  5
F66
  9
$SURFTAB1
 70
     6
  9
$SURFTAB2
 70
     6
  9
$SURFTYPE
 70
     6
  9
$SURFU
 70
     6
  9
$SURFV
 70
     6
  9
$UCSBASE
  2

  9
$UCSNAME
  2

  9
$UCSORG
 10
0.0
 20
0.0
 30
0.0
  9
$UCSXDIR
 10
1.0
 20
0.0
 30
0.0
  9
$UCSYDIR
 10
0.0
 20
1.0
 30
0.0
  9
$UCSORTHOREF
  2

  9
$UCSORTHOVIEW
 70
     0
  9
$UCSORGTOP
 10
0.0
 20
0.0
 30
0.0
  9
$UCSORGBOTTOM
 10
0.0
 20
0.0
 30
0.0
  9
$UCSORGLEFT
 10
0.0
 20
0.0
 30
0.0
  9
$UCSORGRIGHT
 10
0.0
 20
0.0
 30
0.0
  9
$UCSORGFRONT
 10
0.0
 20
0.0
 30
0.0
  9
$UCSORGBACK
 10
0.0
 20
0.0
 30
0.0
  9
$PUCSBASE
  2

  9
$PUCSNAME
  2

  9
$PUCSORG
 10
0.0
 20
0.0
 30
0.0
  9
$PUCSXDIR
 10
1.0
 20
0.0
 30
0.0
  9
$PUCSYDIR
 10
0.0
 20
1.0
 30
0.0
  9
$PUCSORTHOREF
  2

  9
$PUCSORTHOVIEW
 70
     0
  9
$PUCSORGTOP
 10
0.0
 20
0.0
 30
0.0
  9
$PUCSORGBOTTOM
 10
0.0
 20
0.0
 30
0.0
  9
$PUCSORGLEFT
 10
0.0
 20
0.0
 30
0.0
  9
$PUCSORGRIGHT
 10
0.0
 20
0.0
 30
0.0
  9
$PUCSORGFRONT
 10
0.0
 20
0.0
 30
0.0
  9
$PUCSORGBACK
 10
0.0
 20
0.0
 30
0.0
  9
$USERI1
 70
     0
  9
$USERI2
 70
     0
  9
$USERI3
 70
     0
  9
$USERI4
 70
     0
  9
$USERI5
 70
     0
  9
$USERR1
 40
0.0
  9
$USERR2
 40
0.0
  9
$USERR3
 40
0.0
  9
$USERR4
 40
0.0
  9
$USERR5
 40
0.0
  9
$WORLDVIEW
 70
     1
  9
$SHADEDGE
 70
     3
  9
$SHADEDIF
 70
    70
  9
$TILEMODE
 70
     1
  9
$MAXACTVP
 70
    64
  9
$PINSBASE
 10
0.0
 20
0.0
 30
0.0
  9
$PLIMCHECK
 70
     0
  9
$PEXTMIN
 10
1.000000000000000E+20
 20
1.000000000000000E+20
 30
1.000000000000000E+20
  9
$PEXTMAX
 10
-1.000000000000000E+20
 20
-1.000000000000000E+20
 30
-1.000000000000000E+20
  9
$PLIMMIN
 10
-6.350006103515625
 20
-6.349999904632568
  9
$PLIMMAX
 10
273.0499877929688
 20
209.5499939918518
  9
$UNITMODE
 70
     0
  9
$VISRETAIN
 70
     1
  9
$PLINEGEN
 70
     0
  9
$PSLTSCALE
 70
     1
  9
$TREEDEPTH
 70
  3020
  9
$CMLSTYLE
  2
Standard
  9
$CMLJUST
 70
     0
  9
$CMLSCALE
 40
20.0
  9
$PROXYGRAPHICS
 70
     1
  9
$MEASUREMENT
 70
     1
  9
$CELWEIGHT
370
    -1
  9
$ENDCAPS
280
     0
  9
$JOINSTYLE
280
     0
  9
$LWDISPLAY
290
     0
  9
$INSUNITS
 70
     4
  9
$HYPERLINKBASE
  1

  9
$STYLESHEET
  1
takachi-1.ctb
  9
$XEDIT
290
     1
  9
$CEPSNTYPE
380
     0
  9
$PSTYLEMODE
290
     1
  9
$FINGERPRINTGUID
  2
{FDEAD578-A652-11D2-9A35-0060089B3A3F}
  9
$VERSIONGUID
  2
{610D88EA-43E0-41EB-94BB-9520F18947ED}
  9
$EXTNAMES
290
     1
  9
$PSVPSCALE
 40
0.0
  9
$OLESTARTUP
290
     0
  0
ENDSEC
  0
SECTION
  2
CLASSES
  0
CLASS
  1
ACDBDICTIONARYWDFLT
  2
AcDbDictionaryWithDefault
  3
ObjectDBX Classes
 90
        0
280
     0
281
     0
  0
CLASS
  1
ACDBPLACEHOLDER
  2
AcDbPlaceHolder
  3
ObjectDBX Classes
 90
        0
280
     0
281
     0
  0
CLASS
  1
LAYOUT
  2
AcDbLayout
  3
ObjectDBX Classes
 90
        0
280
     0
281
     0
  0
CLASS
  1
ACME_DOCUMENT
  2
AcMeDbDoc
  3
AcMeServices
 90
        0
280
     0
281
     0
  0
CLASS
  1
AMGSETTINGSOBJ
  2
AmgSettingsObj
  3
"AcadM|Product Description: AutoCAD Mechanical 2000|Company: Autodesk"
 90
        0
280
     0
281
     0
  0
CLASS
  1
ACMESCOPE
  2
AcMeScope
  3
AcMeServices
 90
        0
280
     0
281
     0
  0
CLASS
  1
ACMECOMMANDHISTORY
  2
AcMeCommandHistory
  3
AcMeServices
 90
        0
280
     0
281
     0
  0
CLASS
  1
ACIMSYSVARMAN
  2
AcImSysVarManager
  3
AcMeServices
 90
        0
280
     0
281
     0
  0
CLASS
  1
ACIMREALSYSVAR
  2
AcImRealSysVar
  3
AcMeServices
 90
        0
280
     0
281
     0
  0
CLASS
  1
ACIMINTSYSVAR
  2
AcImIntSysVar
  3
AcMeServices
 90
        0
280
     0
281
     0
  0
CLASS
  1
ACMEDRAWINGMAN
  2
AcMeDrawingMan
  3
AcMeServices
 90
        0
280
     0
281
     0
  0
CLASS
  1
ACMEVIEW
  2
AcMeView
  3
AcMeServices
 90
        0
280
     0
281
     0
  0
CLASS
  1
ACDBENTITYCACHE
  2
AcMeEntityCache
  3
AcMeServices
 90
        0
280
     0
281
     0
  0
CLASS
  1
GSMANAGER
  2
AcMeGSManager
  3
AcMeServices
 90
        0
280
     0
281
     0
  0
CLASS
  1
AMDTINTERNALREACTOR
  2
AmdtInternalReactor
  3
AcMeServices
 90
        0
280
     0
281
     0
  0
CLASS
  1
ACMESTATEMGR
  2
AcMeStateMgr
  3
AcMeServices
 90
        0
280
     0
281
     0
  0
CLASS
  1
ACGREFMASTER
  2
AcGrefMaster
  3
AcAttribServices
 90
        0
280
     0
281
     0
  0
CLASS
  1
ACME_DATABASE
  2
AcMeDbDatabase
  3
AcMeServices
 90
        0
280
     0
281
     0
  0
CLASS
  1
ACRFINSADJUSTERMGR
  2
AcRfInsAdjusterMgr
  3
AcMeServices
 90
        0
280
     0
281
     0
  0
CLASS
  1
ACGREFACADMASTER
  2
AcGrefacadMaster
  3
AcGrefServices
 90
        0
280
     0
281
     0
  0
CLASS
  1
AMIMASTER
  2
AmiMaster
  3
AmiServices
 90
        0
280
     0
281
     0
  0
CLASS
  1
ACMDATADICTIONARY
  2
AcmDataDictionary
  3
"AcmSymBB|Product Description: AutoCAD Mechanical 2004 DX|Company: Autodesk"
 90
        0
280
     0
281
     0
  0
CLASS
  1
ACMDATAENTRYBLOCK
  2
AcmDataEntryBlock
  3
"AcmSymBB|Product Description: AutoCAD Mechanical 2004 DX|Company: Autodesk"
 90
        0
280
     0
281
     0
  0
CLASS
  1
ACIMSTRSYSVAR
  2
AcImStrSysVar
  3
AcMeServices
 90
        0
280
     0
281
     0
  0
CLASS
  1
ACMSTANDARDISO
  2
AcmStandardISO
  3
"Amdt_StdImp|Product Description: AutoCAD Mechanical 2004 DX|Company: Autodesk"
 90
        0
280
     0
281
     0
  0
CLASS
  1
AMGOBJPROPCFG
  2
AmgObjPropCfg
  3
"AmgLay|Product Description: AutoCAD Mechanical 2000|Company: Autodesk"
 90
        1
280
     0
281
     0
  0
CLASS
  1
AMDTEDGESTANDARDISO
  2
AmdtEdgeStdISO
  3
"Amdt_StdImp|Product Description: AutoCAD Mechanical 2004 DX|Company: Autodesk"
 90
        0
280
     0
281
     0
  0
CLASS
  1
ACMSURFSTANDARDISO
  2
AcmSurfTextStdISO
  3
"Amdt_StdImp|Product Description: AutoCAD Mechanical 2004 DX|Company: Autodesk"
 90
        0
280
     0
281
     0
  0
CLASS
  1
ACMFCFSTANDARDISO
  2
AcmFCFStdISO
  3
"Amdt_StdImp|Product Description: AutoCAD Mechanical 2004 DX|Company: Autodesk"
 90
        0
280
     0
281
     0
  0
CLASS
  1
ACMWELDSTANDARDISO
  2
AcmWeldingStdISO
  3
"Amdt_StdImp|Product Description: AutoCAD Mechanical 2004 DX|Company: Autodesk"
 90
        0
280
     0
281
     0
  0
CLASS
  1
ACMIDSTANDARDISO
  2
AcmIdStdISO
  3
"Amdt_StdImp|Product Description: AutoCAD Mechanical 2004 DX|Company: Autodesk"
 90
        0
280
     0
281
     0
  0
CLASS
  1
ACMDATUMSTANDARDISO
  2
AcmDatumStdISO
  3
"Amdt_StdImp|Product Description: AutoCAD Mechanical 2004 DX|Company: Autodesk"
 90
        0
280
     0
281
     0
  0
CLASS
  1
ACMBOMSTANDARDISO
  2
AcmBOMStdISO
  3
"Amdt_StdImp|Product Description: AutoCAD Mechanical 2004 DX|Company: Autodesk"
 90
        0
280
     0
281
     0
  0
CLASS
  1
ACMDETAILSTANDARDISO
  2
AmdtDetailSymStdISO
  3
"Amdt_StdImp|Product Description: AutoCAD Mechanical 2004 DX|Company: Autodesk"
 90
        0
280
     0
281
     0
  0
CLASS
  1
ACMSECTIONSTANDARDISO
  2
AmdtSectionSymStdISO
  3
"Amdt_StdImp|Product Description: AutoCAD Mechanical 2004 DX|Company: Autodesk"
 90
        0
280
     0
281
     0
  0
CLASS
  1
ACMCENTERLINESTANDARDISO
  2
AmdtCenterLineStdISO
  3
"Amdt_StdImp|Product Description: AutoCAD Mechanical 2004 DX|Company: Autodesk"
 90
        0
280
     0
281
     0
  0
CLASS
  1
ACMNOTESTANDARDISO
  2
AmdtNoteStdISO
  3
"Amdt_StdImp|Product Description: AutoCAD Mechanical 2004 DX|Company: Autodesk"
 90
        0
280
     0
281
     0
  0
CLASS
  1
ACAMGLAYSTD
  2
AcAmgLayStd
  3
"AcAmgLayStd|Product Description: AutoCAD Mechanical 2000|Company: Autodesk"
 90
        0
280
     0
281
     0
  0
CLASS
  1
ACAMGDIMSTD
  2
AcAmgDimStd
  3
"AcAmgDimStd|Product Description: AutoCAD Mechanical 2000|Company: Autodesk"
 90
        0
280
     0
281
     0
  0
CLASS
  1
ACAMGHOLECHARTSTDISO
  2
AcAmgHoleChartStdISO
  3
ACMSYMBB_MODULE_NAME
 90
        0
280
     0
281
     0
  0
CLASS
  1
ACAMGTITLESTD
  2
AcAmgTitleStd
  3
"TITLEAPP"
 90
        0
280
     0
281
     0
  0
CLASS
  1
LAYER_INDEX
  2
AcDbLayerIndex
  3
ObjectDBX Classes
 90
    32768
280
     0
281
     0
  0
CLASS
  1
IDBUFFER
  2
AcDbIdBuffer
  3
ObjectDBX Classes
 90
    32768
280
     0
281
     0
  0
CLASS
  1
DICTIONARYVAR
  2
AcDbDictionaryVar
  3
ObjectDBX Classes
 90
        0
280
     0
281
     0
  0
CLASS
  1
AM_DRAWING_MGR
  2
AcDmDwgMgr
  3
AcMechDwgViewMgmt
 90
        0
280
     0
281
     0
  0
CLASS
  1
AM_DWG_DOCUMENT
  2
AcDmDwgDocument
  3
AcMechDwgViewMgmt
 90
        0
280
     0
281
     0
  0
CLASS
  1
AM_DWG_SHEET
  2
AcDmSheet
  3
AcMechDwgViewMgmt
 90
        0
280
     0
281
     0
  0
CLASS
  1
AM_VIEWDIMPARMAP
  2
AcDmViewDimParMap
  3
AcMechDwgViewMgmt
 90
        0
280
     0
281
     0
  0
CLASS
  1
AM_DWGMGR_NAME
  2
AcDmDwgMgrName
  3
AcMechDwgViewMgmt
 90
        0
280
     0
281
     0
  0
CLASS
  1
AMDTMENUSTATEMGR
  2
AmdtMenuStateMgr
  3
McadcomServices
 90
        0
280
     0
281
     0
  0
CLASS
  1
AMDTMCOMMENUSTATE
  2
AmdtMcomMenuState
  3
McadcomServices
 90
        0
280
     0
281
     0
  0
CLASS
  1
MAPIAMMOUDLE
  2
MApiAmModule
  3
MApiAmServices
 90
        0
280
     0
281
     0
  0
CLASS
  1
AMDTADMENUSTATE
  2
AmdtAdMenuState
  3
DesignerServices
 90
        0
280
     0
281
     0
  0
CLASS
  1
ADAPPL
  2
AcAdAppl
  3
DesignerServices
 90
        0
280
     0
281
     0
  0
CLASS
  1
DEPMGR
  2
AcAdDepMgr
  3
DesignerServices
 90
        0
280
     0
281
     0
  0
CLASS
  1
PARAMMGR
  2
AcAdParamMgr
  3
DesignerServices
 90
        0
280
     0
281
     0
  0
CLASS
  1
PARAMSCOPE
  2
AcAdParamScope
  3
DesignerServices
 90
        0
280
     0
281
     0
  0
CLASS
  1
NAMEDAPPL
  2
AcAdNamedAppl
  3
DesignerServices
 90
        0
280
     0
281
     0
  0
CLASS
  1
AMDTDMMENUSTATE
  2
AmdtDmMenuState
  3
AcMechDwgViewMgmt
 90
        0
280
     0
281
     0
  0
CLASS
  1
AMDTAMMENUSTATE
  2
AmdtAmMenuState
  3
DesignerAssemblies
 90
        0
280
     0
281
     0
  0
CLASS
  1
ACAMPROJECT
  2
AcAmProject
  3
DesignerAssemblies
 90
        0
280
     0
281
     0
  0
CLASS
  1
ACAMGRCOMPDEF
  2
AcAmGrCompDef
  3
DesignerAssemblies
 90
        0
280
     0
281
     0
  0
CLASS
  1
ACCMCONTEXT
  2
AcCmContext
  3
DesignerAssemblies
 90
        0
280
     0
281
     0
  0
CLASS
  1
ACAMCOMPDEF
  2
AcAmCompDef
  3
DesignerAssemblies
 90
        0
280
     0
281
     0
  0
CLASS
  1
ACAMCOMPDEFMGR
  2
AcAmCompDefMgr
  3
DesignerAssemblies
 90
        0
280
     0
281
     0
  0
CLASS
  1
AMCONTEXTMGR
  2
AcAmContextMgr
  3
DesignerAssemblies
 90
        0
280
     0
281
     0
  0
CLASS
  1
ACAMCONTEXTMODELER
  2
AcAmContextModeler
  3
DesignerAssemblies
 90
        0
280
     0
281
     0
  0
CLASS
  1
ACMTHREADLINESTANDARDISO
  2
AmdtThreadLineStdISO
  3
"Amdt_StdImp|Product Description: AutoCAD Mechanical 2004 DX|Company: Autodesk"
 90
        0
280
     0
281
     0
  0
CLASS
  1
CATALOGSTATE
  2
AcAmCatalogState
  3
DesignerAssemblies
 90
        0
280
     0
281
     0
  0
CLASS
  1
ACAMGRCOMPDEFSET
  2
AcAmGrCompDefSet
  3
DesignerAssemblies
 90
        0
280
     0
281
     0
  0
CLASS
  1
AMDTBROWSERDBTAB
  2
AmdtBrowserDbTab
  3
McadcomServices
 90
        0
280
     0
281
     0
  0
CLASS
  1
CBROWSERAPPOBJECT
  2
CBrowserAppObject
  3
McadcomServices
 90
        0
280
     0
281
     0
  0
CLASS
  1
DM_PLACEHOLDER
  2
AcDmSelsetPlaceholder
  3
AcMechDwgViewMgmt
 90
        0
280
     0
281
     0
  0
CLASS
  1
AMDTNOTETEMPLATEDB
  2
AmdtNoteTemplateDB
  3
AMDT_STDIMP_MODULE_NAME
 90
        0
280
     0
281
     0
  0
CLASS
  1
ACAMGFILTERDAT
  2
AcAmgFilterDat
  3
"AcadM|Product Description: AutoCAD Mechanical 2000|Company: Autodesk"
 90
        0
280
     0
281
     0
  0
CLASS
  1
AMDTNOTE
  2
AmdtNote
  3
"AcmSymBB|Product Description: AutoCAD Mechanical 2004 DX|Company: Autodesk"
 90
    33791
280
     0
281
     1
  0
CLASS
  1
AMDTFORMULAUPDATEDISPATCHER
  2
AmdtFormulaUpdateDispatcher
  3
AcMeServices
 90
        0
280
     0
281
     0
  0
CLASS
  1
AMDTSECTIONSYM
  2
AmdtSectionSym
  3
"AcmSymBB|Product Description: AutoCAD Mechanical 2004 DX|Company: Autodesk"
 90
    33791
280
     0
281
     1
  0
CLASS
  1
AMDTSECTIONSYMLABEL
  2
AmdtSectionSymLabel
  3
"AcmSymBB|Product Description: AutoCAD Mechanical 2004 DX|Company: Autodesk"
 90
    33791
280
     0
281
     1
  0
CLASS
  1
AMDTDETAILSYM
  2
AmdtDetailSym
  3
"AcmSymBB|Product Description: AutoCAD Mechanical 2004 DX|Company: Autodesk"
 90
    33791
280
     0
281
     1
  0
CLASS
  1
AMDTDETAILSYMLABEL
  2
AmdtDetailSymLabel
  3
"AcmSymBB|Product Description: AutoCAD Mechanical 2004 DX|Company: Autodesk"
 90
    33791
280
     0
281
     1
  0
CLASS
  1
ACMBOM
  2
AcmBom
  3
"AcmSymBB|Product Description: AutoCAD Mechanical 2004 DX|Company: Autodesk"
 90
        0
280
     0
281
     0
  0
CLASS
  1
ACMPARTLIST
  2
AcmPartList
  3
"AcmSymBB|Product Description: AutoCAD Mechanical 2004 DX|Company: Autodesk"
 90
     1023
280
     0
281
     1
  0
CLASS
  1
ACMDATAENTRYPART
  2
AcmDataEntryPart
  3
"AcmSymBB|Product Description: AutoCAD Mechanical 2004 DX|Company: Autodesk"
 90
        0
280
     0
281
     0
  0
CLASS
  1
ACMPARTREF
  2
AcmPartRef
  3
"AcmSymBB|Product Description: AutoCAD Mechanical 2004 DX|Company: Autodesk"
 90
     1023
280
     0
281
     1
  0
CLASS
  1
ACMBOMROW
  2
AcmBomRow
  3
"AcmSymBB|Product Description: AutoCAD Mechanical 2004 DX|Company: Autodesk"
 90
        0
280
     0
281
     0
  0
CLASS
  1
ACMDATAENTRY
  2
AcmDataEntry
  3
"AcmSymBB|Product Description: AutoCAD Mechanical 2004 DX|Company: Autodesk"
 90
        0
280
     0
281
     0
  0
CLASS
  1
ACMBALLOON
  2
AcmBalloon
  3
"AcmSymBB|Product Description: AutoCAD Mechanical 2004 DX|Company: Autodesk"
 90
     1023
280
     0
281
     1
  0
CLASS
  1
ACDBLINERES
  2
AcDbLineRes
  3
AcGrefServices
 90
        0
280
     0
281
     0
  0
CLASS
  1
ACRFINSADJ
  2
AcRfInsAdjuster
  3
AcMeServices
 90
        0
280
     0
281
     0
  0
CLASS
  1
DIMASSOC
  2
AcDbDimAssoc
  3
"AcDbDimAssoc|Product Desc:     AcDim ARX App For Dimension|Company:          Autodesk, Inc.|WEB Address:      www.autodesk.com"
 90
    32768
280
     0
281
     0
  0
CLASS
  1
TABLESTYLE
  2
AcDbTableStyle
  3
ObjectDBX Classes
 90
     2047
280
     0
281
     0
  0
CLASS
  1
SORTENTSTABLE
  2
AcDbSortentsTable
  3
ObjectDBX Classes
 90
        0
280
     0
281
     0
  0
ENDSEC
  0
SECTION
  2
TABLES
  0
TABLE
  2
VPORT
  5
8
330
0
100
AcDbSymbolTable
 70
     3
  0
VPORT
  5
F59
330
8
100
AcDbSymbolTableRecord
100
AcDbViewportTableRecord
  2
*Active
 70
     0
 10
0.0
 20
0.0
 11
1.0
 21
1.0
 12
302.2438552825074
 22
209.9957307173748
 13
0.0
 23
0.0
 14
3.75
 24
3.75
 15
15.0
 25
15.0
 16
0.0
 26
0.0
 36
1.0
 17
0.0
 27
0.0
 37
0.0
 40
507.560538168931
 41
1.198709677419354
 42
50.0
 43
0.0
 44
0.0
 50
0.0
 51
0.0
 71
     0
 72
   100
 73
     1
 74
     3
 75
     0
 76
     0
 77
     0
 78
     0
281
     0
 65
     1
110
0.0
120
0.0
130
0.0
111
1.0
121
0.0
131
0.0
112
0.0
122
1.0
132
0.0
 79
     0
146
0.0
  0
ENDTAB
  0
TABLE
  2
LTYPE
  5
5
330
0
100
AcDbSymbolTable
 70
    20
  0
LTYPE
  5
14
330
5
100
AcDbSymbolTableRecord
100
AcDbLinetypeTableRecord
  2
ByBlock
 70
     0
  3

 72
    65
 73
     0
 40
0.0
  0
LTYPE
  5
15
330
5
100
AcDbSymbolTableRecord
100
AcDbLinetypeTableRecord
  2
ByLayer
 70
     0
  3

 72
    65
 73
     0
 40
0.0
  0
LTYPE
  5
16
330
5
100
AcDbSymbolTableRecord
100
AcDbLinetypeTableRecord
  2
Continuous
 70
     0
  3
Solid line
 72
    65
 73
     0
 40
0.0
  0
LTYPE
  5
64
330
5
100
AcDbSymbolTableRecord
100
AcDbLinetypeTableRecord
  2
AM_ISO02W050
 70
     0
  3
__ __ __ __ __ __ __ __ __ __ __ __ __ __ __
 72
    65
 73
     2
 40
7.5
 49
6.0
 74
     0
 49
-1.5
 74
     0
  0
LTYPE
  5
65
330
5
100
AcDbSymbolTableRecord
100
AcDbLinetypeTableRecord
  2
AM_ISO08W050
 70
     0
  3
____ . ____ . ____ . ____ . ____ . ____ . ____
 72
    65
 73
     4
 40
18.0
 49
12.0
 74
     0
 49
-1.5
 74
     0
 49
3.0
 74
     0
 49
-1.5
 74
     0
  0
LTYPE
  5
66
330
5
100
AcDbSymbolTableRecord
100
AcDbLinetypeTableRecord
  2
AM_ISO09W050
 70
     0
  3
_____ . . _____ . . _____ . . ____ .. ____
 72
    65
 73
     6
 40
22.5
 49
12.0
 74
     0
 49
-1.5
 74
     0
 49
3.0
 74
     0
 49
-1.5
 74
     0
 49
3.0
 74
     0
 49
-1.5
 74
     0
  0
LTYPE
  5
67
330
5
100
AcDbSymbolTableRecord
100
AcDbLinetypeTableRecord
  2
Amconstr
 70
     0
  3
_______________________
 72
    65
 73
     2
 40
9999.0
 49
9999.0
 74
     0
 49
0.0
 74
     0
  0
LTYPE
  5
68
330
5
100
AcDbSymbolTableRecord
100
AcDbLinetypeTableRecord
  2
AM_ISO08W050x2
 70
     0
  3
__ . __ . __ . __ . __ . __
 72
    65
 73
     4
 40
9.0
 49
6.0
 74
     0
 49
-0.75
 74
     0
 49
1.5
 74
     0
 49
-0.75
 74
     0
  0
LTYPE
  5
69
330
5
100
AcDbSymbolTableRecord
100
AcDbLinetypeTableRecord
  2
AM_ISO02W050x2
 70
     0
  3
 _ _ _ _ _ _ _ _ _ _ _ _
 72
    65
 73
     2
 40
3.75
 49
3.0
 74
     0
 49
-0.75
 74
     0
  0
LTYPE
  5
6C
330
5
100
AcDbSymbolTableRecord
100
AcDbLinetypeTableRecord
  2
Amzigzag
 70
     0
  3
/\/-/\/-/\/-/\/-/\/-/\/
 72
    65
 73
     2
 40
11.0001
 49
0.0001
 74
     4
 75
   135
340
6B
 46
0.04
 50
0.0
 44
0.0
 45
0.0
 49
-11.0
 74
     0
  0
LTYPE
  5
7A
330
5
100
AcDbSymbolTableRecord
100
AcDbLinetypeTableRecord
  2
ACISOWELD
 70
     0
  3
_ _ _ _ _
 72
    65
 73
     2
 40
2.0
 49
2.0
 74
     0
 49
-1.0
 74
     0
  0
LTYPE
  5
7B
330
5
100
AcDbSymbolTableRecord
100
AcDbLinetypeTableRecord
  2
ACISOTGB
 70
     0
  3
__ . . __ . .
 72
    65
 73
     6
 40
9.0
 49
4.0
 74
     0
 49
-1.0
 74
     0
 49
1.0
 74
     0
 49
-1.0
 74
     0
 49
1.0
 74
     0
 49
-1.0
 74
     0
  0
LTYPE
  5
7C
330
5
100
AcDbSymbolTableRecord
100
AcDbLinetypeTableRecord
  2
ACISOTGL
 70
     0
  3
_ _ _ _ _
 72
    65
 73
     2
 40
3.0
 49
2.0
 74
     0
 49
-1.0
 74
     0
  0
LTYPE
  5
7E
330
5
100
AcDbSymbolTableRecord
100
AcDbLinetypeTableRecord
  2
CENTER
 70
     0
  3
__ . __
 72
    65
 73
     4
 40
7.0
 49
4.0
 74
     0
 49
-1.0
 74
     0
 49
1.0
 74
     0
 49
-1.0
 74
     0
  0
LTYPE
  5
D8
330
5
100
AcDbSymbolTableRecord
100
AcDbLinetypeTableRecord
  2
HIDDEN
 70
     0
  3
Hidden __ __ __ __ __ __ __ __ __ __ __ __ __ _
 72
    65
 73
     2
 40
9.524999999999998
 49
6.349999999999999
 74
     0
 49
-3.174999999999999
 74
     0
  0
LTYPE
  5
D9
330
5
100
AcDbSymbolTableRecord
100
AcDbLinetypeTableRecord
  2
PHANTOM2
 70
     0
  3
Phantom (.5x) ___ _ _ ___ _ _ ___ _ _ ___ _ _
 72
    65
 73
     6
 40
31.75
 49
15.875
 74
     0
 49
-3.174999999999999
 74
     0
 49
3.174999999999999
 74
     0
 49
-3.174999999999999
 74
     0
 49
3.174999999999999
 74
     0
 49
-3.174999999999999
 74
     0
  0
LTYPE
  5
590
330
5
100
AcDbSymbolTableRecord
100
AcDbLinetypeTableRecord
  2
gen3
 70
     0
  3
-- -- -- -- -- -- -- -- -- -- -- -- -- -- --
 72
    65
 73
     2
 40
6.25
 49
4.75
 74
     0
 49
-1.5
 74
     0
  0
LTYPE
  5
591
330
5
100
AcDbSymbolTableRecord
100
AcDbLinetypeTableRecord
  2
gen7
 70
     0
  3
____ . ____ . ____ . ____ . ____ . ____ . ____
 72
    65
 73
     4
 40
13.75
 49
9.75
 74
     0
 49
-1.5
 74
     0
 49
1.0
 74
     0
 49
-1.5
 74
     0
  0
LTYPE
  5
592
330
5
100
AcDbSymbolTableRecord
100
AcDbLinetypeTableRecord
  2
gen3a
 70
     0
  3
 - - - - -
 72
    65
 73
     2
 40
3.125
 49
2.25
 74
     0
 49
-0.875
 74
     0
  0
LTYPE
  5
593
330
5
100
AcDbSymbolTableRecord
100
AcDbLinetypeTableRecord
  2
gen7a
 70
     0
  3
__ . __ . __
 72
    65
 73
     4
 40
6.875
 49
4.75
 74
     0
 49
-0.875
 74
     0
 49
0.375
 74
     0
 49
-0.875
 74
     0
  0
LTYPE
  5
594
330
5
100
AcDbSymbolTableRecord
100
AcDbLinetypeTableRecord
  2
gen4a
 70
     0
  3
_____ . . _____ . . _____ . . ____ .. ____
 72
    65
 73
     6
 40
16.25
 49
9.75
 74
     0
 49
-1.5
 74
     0
 49
1.0
 74
     0
 49
-1.5
 74
     0
 49
1.0
 74
     0
 49
-1.5
 74
     0
  0
LTYPE
  5
595
330
5
100
AcDbSymbolTableRecord
100
AcDbLinetypeTableRecord
  2
genzigzag
 70
     0
  3
/\/-/\/-/\/-/\/-/\/-/\/
 72
    65
 73
     2
 40
12.0001
 49
0.0001
 74
     4
 75
   135
340
6B
 46
2.0
 50
0.0
 44
0.0
 45
0.0
 49
-12.0
 74
     0
  0
ENDTAB
  0
TABLE
  2
LAYER
  5
2
102
{ACAD_XDICTIONARY
360
35D
102
}
330
0
100
AcDbSymbolTable
 70
    17
  0
LAYER
  5
10
330
2
100
AcDbSymbolTableRecord
100
AcDbLayerTableRecord
  2
0
 70
     0
 62
     7
  6
Continuous
370
    -3
390
F
  0
LAYER
  5
1E1
330
2
100
AcDbSymbolTableRecord
100
AcDbLayerTableRecord
  2
Defpoints
 70
     0
 62
     7
  6
Continuous
290
     0
370
    -3
390
F
  0
LAYER
  5
539
330
2
100
AcDbSymbolTableRecord
100
AcDbLayerTableRecord
  2
TK1
 70
     0
 62
     7
  6
Continuous
370
    25
390
F
  0
LAYER
  5
53A
330
2
100
AcDbSymbolTableRecord
100
AcDbLayerTableRecord
  2
TK10
 70
     0
 62
     7
  6
AM_ISO02W050x2
370
    13
390
F
  0
LAYER
  5
53B
330
2
100
AcDbSymbolTableRecord
100
AcDbLayerTableRecord
  2
TK2
 70
     0
 62
    51
  6
Continuous
370
    25
390
F
  0
LAYER
  5
53C
330
2
100
AcDbSymbolTableRecord
100
AcDbLayerTableRecord
  2
TK3
 70
     0
 62
    91
  6
Continuous
370
    25
390
F
  0
LAYER
  5
53D
330
2
100
AcDbSymbolTableRecord
100
AcDbLayerTableRecord
  2
TK20
 70
     0
 62
    51
  6
AM_ISO02W050x2
370
    13
390
F
  0
LAYER
  5
53E
330
2
100
AcDbSymbolTableRecord
100
AcDbLayerTableRecord
  2
TK30
 70
     0
 62
    91
  6
AM_ISO02W050x2
370
    13
390
F
  0
LAYER
  5
585
330
2
100
AcDbSymbolTableRecord
100
AcDbLayerTableRecord
  2
AM_5
 70
     0
 62
     3
  6
Continuous
370
    25
390
F
  0
LAYER
  5
5B1
330
2
100
AcDbSymbolTableRecord
100
AcDbLayerTableRecord
  2
7A
 70
     0
 62
     4
  6
gen7a
370
    -3
390
F
  0
LAYER
  5
5B2
330
2
100
AcDbSymbolTableRecord
100
AcDbLayerTableRecord
  2
RAHM2
 70
     0
 62
     1
  6
Continuous
370
    -3
390
F
  0
LAYER
  5
5B3
330
2
100
AcDbSymbolTableRecord
100
AcDbLayerTableRecord
  2
KLIN
 70
     0
 62
     1
  6
Continuous
370
    -3
390
F
  0
LAYER
  5
61C
330
2
100
AcDbSymbolTableRecord
100
AcDbLayerTableRecord
  2
AM_12
 70
     0
 62
     7
  6
Continuous
290
     0
370
    50
390
F
  0
LAYER
  5
61D
330
2
100
AcDbSymbolTableRecord
100
AcDbLayerTableRecord
  2
AM_PAREF
 70
     0
 62
     4
  6
Continuous
290
     0
370
    25
390
F
  0
LAYER
  5
673
330
2
100
AcDbSymbolTableRecord
100
AcDbLayerTableRecord
  2
AM_7
 70
     0
 62
     4
  6
AM_ISO08W050
370
    25
390
F
  0
LAYER
  5
7D8
330
2
100
AcDbSymbolTableRecord
100
AcDbLayerTableRecord
  2
AM_0
 70
     0
 62
     7
  6
Continuous
370
    50
390
F
  0
LAYER
  5
815
330
2
100
AcDbSymbolTableRecord
100
AcDbLayerTableRecord
  2
AM_CL
 70
     0
 62
     1
  6
Amconstr
370
    25
390
F
  0
ENDTAB
  0
TABLE
  2
STYLE
  5
3
330
0
100
AcDbSymbolTable
 70
     5
  0
STYLE
  5
11
330
3
100
AcDbSymbolTableRecord
100
AcDbTextStyleTableRecord
  2
STANDARD
 70
     0
 40
0.0
 41
1.0
 50
0.0
 71
     0
 42
73.98571745357912
  3
ISOCP.SHX
  4
bigfont.shx
  0
STYLE
  5
6B
330
3
100
AcDbSymbolTableRecord
100
AcDbTextStyleTableRecord
  2

 70
     1
 40
0.0
 41
1.0
 50
0.0
 71
     0
 42
2.5
  3
ltypeshp.shx
  4

  0
STYLE
  5
6D
330
3
100
AcDbSymbolTableRecord
100
AcDbTextStyleTableRecord
  2
ACISOTS
 70
     0
 40
1.0
 41
1.0
 50
0.0
 71
     0
 42
2.5
  3
isocp.shx
  4
extfont.shx
  0
STYLE
  5
79
330
3
100
AcDbSymbolTableRecord
100
AcDbTextStyleTableRecord
  2
ACISOGDT
 70
     0
 40
0.0
 41
1.0
 50
0.0
 71
     0
 42
2.5
  3
amgdt.shx
  4

  0
STYLE
  5
5B4
330
3
100
AcDbSymbolTableRecord
100
AcDbTextStyleTableRecord
  2

 70
     1
 40
0.0
 41
1.0
 50
0.0
 71
     0
 42
3.0
  3
genltshp.shx
  4

  0
ENDTAB
  0
TABLE
  2
VIEW
  5
6
330
0
100
AcDbSymbolTable
 70
     6
  0
VIEW
  5
291
330
6
100
AcDbSymbolTableRecord
100
AcDbViewTableRecord
  2
AM_VIEW1
 70
     0
 40
210.0
 10
156.2822164948454
 20
315.0000000000001
 41
312.5644329896908
 11
0.0
 21
0.0
 31
1.0
 12
0.0
 22
0.0
 32
0.0
 42
50.0
 43
0.0
 44
0.0
 50
0.0
 71
     0
281
     0
 72
     0
  0
VIEW
  5
292
330
6
100
AcDbSymbolTableRecord
100
AcDbViewTableRecord
  2
AM_VIEW2
 70
     0
 40
210.0
 10
448.2177835051545
 20
315.0000000000001
 41
312.5644329896908
 11
0.0
 21
0.0
 31
1.0
 12
0.0
 22
0.0
 32
0.0
 42
50.0
 43
0.0
 44
0.0
 50
0.0
 71
     0
281
     0
 72
     0
  0
VIEW
  5
293
330
6
100
AcDbSymbolTableRecord
100
AcDbViewTableRecord
  2
AM_VIEW3
 70
     0
 40
210.0
 10
156.2822164948454
 20
105.0
 41
312.5644329896908
 11
0.0
 21
0.0
 31
1.0
 12
0.0
 22
0.0
 32
0.0
 42
50.0
 43
0.0
 44
0.0
 50
0.0
 71
     0
281
     0
 72
     0
  0
VIEW
  5
294
330
6
100
AcDbSymbolTableRecord
100
AcDbViewTableRecord
  2
AM_VIEW4
 70
     0
 40
210.0
 10
448.2177835051545
 20
105.0
 41
312.5644329896908
 11
0.0
 21
0.0
 31
1.0
 12
0.0
 22
0.0
 32
0.0
 42
50.0
 43
0.0
 44
0.0
 50
0.0
 71
     0
281
     0
 72
     0
  0
VIEW
  5
295
330
6
100
AcDbSymbolTableRecord
100
AcDbViewTableRecord
  2
AM_VIEW5
 70
     0
 40
210.0000000000001
 10
302.25
 20
210.0
 41
312.5644329896909
 11
0.0
 21
0.0
 31
1.0
 12
0.0
 22
0.0
 32
0.0
 42
50.0
 43
0.0
 44
0.0
 50
0.0
 71
     0
281
     0
 72
     0
  0
VIEW
  5
296
330
6
100
AcDbSymbolTableRecord
100
AcDbViewTableRecord
  2
AM_VIEW6
 70
     0
 40
419.9958000000001
 10
302.25
 20
210.0
 41
625.122614690722
 11
0.0
 21
0.0
 31
1.0
 12
0.0
 22
0.0
 32
0.0
 42
50.0
 43
0.0
 44
0.0
 50
0.0
 71
     0
281
     0
 72
     0
  0
ENDTAB
  0
TABLE
  2
UCS
  5
7
330
0
100
AcDbSymbolTable
 70
     0
  0
ENDTAB
  0
TABLE
  2
APPID
  5
9
330
0
100
AcDbSymbolTable
 70
    33
  0
APPID
  5
12
330
9
100
AcDbSymbolTableRecord
100
AcDbRegAppTableRecord
  2
ACAD
 70
     0
  0
APPID
  5
46
330
9
100
AcDbSymbolTableRecord
100
AcDbRegAppTableRecord
  2
MCAD_NO_VIS
 70
     0
  0
APPID
  5
47
330
9
100
AcDbSymbolTableRecord
100
AcDbRegAppTableRecord
  2
ACAD_TEMP_GRAPHIC
 70
     0
  0
APPID
  5
58
330
9
100
AcDbSymbolTableRecord
100
AcDbRegAppTableRecord
  2
ACATTRIBSERVICES
 70
     0
  0
APPID
  5
EE
330
9
100
AcDbSymbolTableRecord
100
AcDbRegAppTableRecord
  2
AD_DRAW
 70
     0
  0
APPID
  5
10C
330
9
100
AcDbSymbolTableRecord
100
AcDbRegAppTableRecord
  2
DESIGNERASSEMBLIES
 70
     0
  0
APPID
  5
111
330
9
100
AcDbSymbolTableRecord
100
AcDbRegAppTableRecord
  2
ACADM_DIM_EDIT
 70
     0
  0
APPID
  5
112
330
9
100
AcDbSymbolTableRecord
100
AcDbRegAppTableRecord
  2
AMDT_DM_ADJ
 70
     0
  0
APPID
  5
1E2
330
9
100
AcDbSymbolTableRecord
100
AcDbRegAppTableRecord
  2
GENIUS_GENREC_14
 70
     0
  0
APPID
  5
1E3
330
9
100
AcDbSymbolTableRecord
100
AcDbRegAppTableRecord
  2
GENIUS_GENODEF_13
 70
     0
  0
APPID
  5
1E4
330
9
100
AcDbSymbolTableRecord
100
AcDbRegAppTableRecord
  2
GENIUS_GENOBJ-N-REC_13
 70
     0
  0
APPID
  5
1E5
330
9
100
AcDbSymbolTableRecord
100
AcDbRegAppTableRecord
  2
GENIUS_GENDIMSH_14
 70
     0
  0
APPID
  5
1E6
330
9
100
AcDbSymbolTableRecord
100
AcDbRegAppTableRecord
  2
GENIUS_GENCFG_13
 70
     0
  0
APPID
  5
1E7
330
9
100
AcDbSymbolTableRecord
100
AcDbRegAppTableRecord
  2
GENIUS_GENCFG0_13
 70
     0
  0
APPID
  5
1E8
330
9
100
AcDbSymbolTableRecord
100
AcDbRegAppTableRecord
  2
GENIUS_GENCFG1_13
 70
     0
  0
APPID
  5
1E9
330
9
100
AcDbSymbolTableRecord
100
AcDbRegAppTableRecord
  2
GENIUS_GENCFG2_13
 70
     0
  0
APPID
  5
1EA
330
9
100
AcDbSymbolTableRecord
100
AcDbRegAppTableRecord
  2
GENIUS_GENCFG3_13
 70
     0
  0
APPID
  5
1EB
330
9
100
AcDbSymbolTableRecord
100
AcDbRegAppTableRecord
  2
GENIUS_GENCFG4_13
 70
     0
  0
APPID
  5
1EC
330
9
100
AcDbSymbolTableRecord
100
AcDbRegAppTableRecord
  2
GENIUS_GEVCFG0_13
 70
     0
  0
APPID
  5
1ED
330
9
100
AcDbSymbolTableRecord
100
AcDbRegAppTableRecord
  2
GENIUS_GENOENT_13
 70
     0
  0
APPID
  5
1EE
330
9
100
AcDbSymbolTableRecord
100
AcDbRegAppTableRecord
  2
GENIUS_GENOBJ-N-CRS_13
 70
     0
  0
APPID
  5
1EF
330
9
100
AcDbSymbolTableRecord
100
AcDbRegAppTableRecord
  2
GENIUS_GENOREF_13
 70
     0
  0
APPID
  5
1F0
330
9
100
AcDbSymbolTableRecord
100
AcDbRegAppTableRecord
  2
GENIUS_GENOLIS_13
 70
     0
  0
APPID
  5
1F1
330
9
100
AcDbSymbolTableRecord
100
AcDbRegAppTableRecord
  2
GENIUS_GENOBJ-N-TIT_13
 70
     0
  0
APPID
  5
1F2
330
9
100
AcDbSymbolTableRecord
100
AcDbRegAppTableRecord
  2
GENIUS_GENTITLE_13
 70
     0
  0
APPID
  5
1F3
330
9
100
AcDbSymbolTableRecord
100
AcDbRegAppTableRecord
  2
GENIUS_GENSCREG_15
 70
     0
  0
APPID
  5
1F4
330
9
100
AcDbSymbolTableRecord
100
AcDbRegAppTableRecord
  2
GENIUS_GENOBJ-N-SDF_13
 70
     0
  0
APPID
  5
1F5
330
9
100
AcDbSymbolTableRecord
100
AcDbRegAppTableRecord
  2
GENIUS_GENOBJ-N-CEN_13
 70
     0
  0
APPID
  5
1F6
330
9
100
AcDbSymbolTableRecord
100
AcDbRegAppTableRecord
  2
GENIUS_GENOBJ-N-HTC_13
 70
     0
  0
APPID
  5
1F7
330
9
100
AcDbSymbolTableRecord
100
AcDbRegAppTableRecord
  2
GENIUS_GENHATCH_13
 70
     0
  0
APPID
  5
484
330
9
100
AcDbSymbolTableRecord
100
AcDbRegAppTableRecord
  2
GENIUS_GENOBJ-N-ZOO_13
 70
     0
  0
APPID
  5
485
330
9
100
AcDbSymbolTableRecord
100
AcDbRegAppTableRecord
  2
GENIUS_GENZOO_17
 70
     0
  0
APPID
  5
784
330
9
100
AcDbSymbolTableRecord
100
AcDbRegAppTableRecord
  2
GENIUS_GENDTOL_13
 70
     0
  0
ENDTAB
  0
TABLE
  2
DIMSTYLE
  5
A
330
0
100
AcDbSymbolTable
 70
    16
100
AcDbDimStyleTable
 71
     1
340
81
  0
DIMSTYLE
105
81
330
A
100
AcDbSymbolTableRecord
100
AcDbDimStyleTableRecord
  2
AM_ISO
 70
     0
  4
"
 41
2.5
 42
1.0
 43
10.0
 44
1.0
 47
0.1
 48
0.1
 73
     0
 74
     0
 77
     1
 78
     8
 79
     2
140
3.5
141
0.0
143
0.0393701
146
0.71
147
1.5
172
     1
176
   256
177
   256
178
     2
271
     2
272
     2
283
     0
284
     8
340
11
341
407
342
407
371
    -1
372
    -1
  0
DIMSTYLE
105
82
330
A
100
AcDbSymbolTableRecord
100
AcDbDimStyleTableRecord
  2
AM_ISO$3
 70
     0
  4
"
 41
2.5
 42
1.0
 43
10.0
 44
1.0
 47
0.1
 48
0.1
 73
     0
 77
     1
 78
     8
 79
     2
140
3.5
141
0.0
143
0.0393701
146
0.71
147
1.5
176
   256
177
   256
178
     2
271
     2
272
     2
283
     0
284
     8
288
     1
289
     0
340
11
341
407
342
407
371
    -1
372
    -1
  0
DIMSTYLE
105
83
330
A
100
AcDbSymbolTableRecord
100
AcDbDimStyleTableRecord
  2
AM_ISO$4
 70
     0
  4
"
 41
2.5
 42
1.0
 43
10.0
 44
1.0
 47
0.1
 48
0.1
 73
     0
 77
     1
 78
     8
 79
     2
140
3.5
141
0.0
143
0.0393701
146
0.71
147
1.5
176
   256
177
   256
178
     2
271
     2
272
     2
283
     0
284
     8
288
     1
289
     0
340
11
341
407
342
407
371
    -1
372
    -1
  0
DIMSTYLE
105
84
330
A
100
AcDbSymbolTableRecord
100
AcDbDimStyleTableRecord
  2
AM_ISO$6
 70
     0
  4
"
 41
2.5
 42
1.0
 43
10.0
 44
1.0
 47
0.1
 48
0.1
 73
     0
 74
     0
 78
     8
 79
     2
140
3.5
141
0.0
143
0.0393701
146
0.71
147
1.5
172
     1
176
   256
177
   256
178
     2
271
     2
272
     2
283
     0
284
     8
340
11
341
407
342
407
371
    -1
372
    -1
  0
DIMSTYLE
105
85
330
A
100
AcDbSymbolTableRecord
100
AcDbDimStyleTableRecord
  2
AM_ISO$7
 70
     0
  4
"
 41
2.5
 42
1.0
 43
10.0
 44
1.0
 47
0.1
 48
0.1
 73
     0
 74
     0
 77
     1
 78
     8
 79
     2
140
5.0
141
0.0
143
0.0393701
146
0.71
147
1.5
172
     1
176
   256
177
   256
178
     2
271
     2
272
     2
283
     0
284
     8
340
11
341
407
342
407
371
    -1
372
    -1
  0
DIMSTYLE
105
86
330
A
100
AcDbSymbolTableRecord
100
AcDbDimStyleTableRecord
  2
AM_ISO$SF
 70
     0
  4
"
 41
2.5
 42
1.0
 43
10.0
 44
1.0
 47
0.1
 48
0.1
 73
     0
 74
     0
 75
     1
 76
     1
 77
     1
 78
     8
 79
     2
140
3.5
141
0.0
143
0.0393701
146
0.71
147
1.5
172
     1
176
   256
177
   256
178
     2
271
     2
272
     2
283
     0
284
     8
340
11
341
407
342
407
371
    -1
372
    -1
  0
DIMSTYLE
105
8B
330
A
100
AcDbSymbolTableRecord
100
AcDbDimStyleTableRecord
  2
AM_ISO$SH
 70
     0
  4
"
 41
2.5
 42
1.0
 43
10.0
 44
1.0
 47
0.1
 48
0.1
 73
     0
 74
     0
 75
     1
 76
     1
 77
     1
 78
     8
 79
     2
140
3.5
141
0.0
143
0.0393701
144
2.0
146
0.71
147
1.5
172
     1
173
     1
176
   256
177
   256
178
     2
271
     2
272
     2
283
     0
284
     8
340
11
341
407
343
87
344
407
371
    -1
372
    -1
  0
DIMSTYLE
105
596
330
A
100
AcDbSymbolTableRecord
100
AcDbDimStyleTableRecord
  2
GEN-ISO
 70
     0
  4
"
 41
2.5
 42
1.0
 43
10.0
 44
1.0
 47
0.1
 48
0.1
 73
     0
 74
     0
 77
     1
 78
     8
140
3.5
141
0.0
143
0.0393701
146
0.71
147
1.5
172
     1
176
   256
177
   256
178
     2
271
     2
272
     3
274
     4
283
     0
340
11
  0
DIMSTYLE
105
597
330
A
100
AcDbSymbolTableRecord
100
AcDbDimStyleTableRecord
  2
GEN-ISO$3
 70
     0
  4
"
 41
2.5
 42
1.0
 43
10.0
 44
1.0
 47
0.1
 48
0.1
 73
     0
 77
     1
 78
     8
140
3.5
141
0.0
143
0.0393701
146
0.71
147
1.5
176
   256
177
   256
178
     2
271
     2
272
     3
274
     4
283
     0
288
     1
289
     0
340
11
  0
DIMSTYLE
105
598
330
A
100
AcDbSymbolTableRecord
100
AcDbDimStyleTableRecord
  2
GEN-ISO$4
 70
     0
  4
"
 41
2.5
 42
1.0
 43
10.0
 44
1.0
 47
0.1
 48
0.1
 73
     0
 77
     1
 78
     8
140
3.5
141
0.0
143
0.0393701
146
0.71
147
1.5
176
   256
177
   256
178
     2
271
     2
272
     3
274
     4
283
     0
288
     1
289
     0
340
11
  0
DIMSTYLE
105
599
330
A
100
AcDbSymbolTableRecord
100
AcDbDimStyleTableRecord
  2
GEN-ISO$6
 70
     0
  4
"
 41
2.5
 42
1.0
 43
10.0
 44
1.0
 47
0.1
 48
0.1
 73
     0
 74
     0
 78
     8
140
3.5
141
0.0
143
0.0393701
146
0.71
147
1.5
176
   256
177
   256
178
     2
271
     2
272
     3
274
     4
283
     0
340
11
  0
DIMSTYLE
105
59A
330
A
100
AcDbSymbolTableRecord
100
AcDbDimStyleTableRecord
  2
GEN-ISO-POS
 70
     0
  4
"
 41
2.5
 42
1.0
 43
10.0
 44
1.0
 47
0.1
 48
0.1
 73
     0
 74
     0
 78
     8
140
5.0
141
0.0
143
0.0393701
146
0.71
147
1.5
176
   256
177
   256
178
     2
271
     2
272
     3
274
     4
283
     0
340
11
  0
DIMSTYLE
105
59B
330
A
100
AcDbSymbolTableRecord
100
AcDbDimStyleTableRecord
  2
GEN-ISO-AXE-F
 70
     0
  4
"
 41
2.5
 42
1.0
 43
10.0
 44
1.0
 47
0.1
 48
0.1
 73
     0
 74
     0
 75
     1
 76
     1
 77
     1
 78
     8
140
3.5
141
0.0
143
0.0393701
146
0.71
147
1.5
172
     1
176
   256
177
   256
178
     2
271
     2
272
     3
274
     4
283
     0
340
11
  0
DIMSTYLE
105
59C
330
A
100
AcDbSymbolTableRecord
100
AcDbDimStyleTableRecord
  2
GEN-ISO-AXE-H
 70
     0
  4
"
 41
2.5
 42
1.0
 43
10.0
 44
1.0
 47
0.1
 48
0.1
 73
     0
 74
     0
 75
     1
 76
     1
 77
     1
 78
     8
140
3.5
141
0.0
143
0.0393701
144
2.0
146
0.71
147
1.5
172
     1
173
     1
176
   256
177
   256
178
     2
271
     2
272
     3
274
     4
283
     0
340
11
  0
DIMSTYLE
105
81D
330
A
100
AcDbSymbolTableRecord
100
AcDbDimStyleTableRecord
  2
AM_ANSI
 70
     0
  4
mm
 41
0.1
 42
0.05
 43
0.5
 44
0.1
 47
0.1
 48
0.1
 78
     7
 79
     2
140
0.12
141
0.0
146
0.71
147
0.06
176
   256
177
   256
178
     2
274
     4
284
     7
340
11
371
    -1
372
    -1
  0
DIMSTYLE
105
A31
330
A
100
AcDbSymbolTableRecord
100
AcDbDimStyleTableRecord
  2
AM_ISO$0
 70
     0
  4
"
 41
2.5
 42
1.0
 43
10.0
 44
1.0
 47
0.1
 48
0.1
 73
     0
 74
     0
 77
     1
 78
     8
 79
     2
140
3.5
141
0.0
143
0.0393701
146
0.71
147
1.5
172
     1
176
   256
177
   256
178
     2
271
     2
272
     2
283
     0
284
     8
340
11
341
407
342
407
371
    -1
372
    -1
  0
ENDTAB
  0
TABLE
  2
BLOCK_RECORD
  5
1
330
0
100
AcDbSymbolTable
 70
    11
  0
BLOCK_RECORD
  5
1F
102
{ACAD_XDICTIONARY
360
8F
102
}
330
1
100
AcDbSymbolTableRecord
100
AcDbBlockTableRecord
  2
*Model_Space
340
22
  0
BLOCK_RECORD
  5
23
330
1
100
AcDbSymbolTableRecord
100
AcDbBlockTableRecord
  2
*Paper_Space
340
26
  0
BLOCK_RECORD
  5
1B
330
1
100
AcDbSymbolTableRecord
100
AcDbBlockTableRecord
  2
*Paper_Space0
340
1E
  0
BLOCK_RECORD
  5
87
330
1
100
AcDbSymbolTableRecord
100
AcDbBlockTableRecord
  2
GENAXEH
340
0
  0
BLOCK_RECORD
  5
407
330
1
100
AcDbSymbolTableRecord
100
AcDbBlockTableRecord
  2
_Open30
340
0
  0
BLOCK_RECORD
  5
59D
102
{ACAD_XDICTIONARY
360
5A6
102
}
330
1
100
AcDbSymbolTableRecord
100
AcDbBlockTableRecord
  2
TAKACHI-A3
340
0
102
{BLKREFS
331
659
102
}
  0
BLOCK_RECORD
  5
5B5
102
{ACAD_XDICTIONARY
360
60A
102
}
330
1
100
AcDbSymbolTableRecord
100
AcDbBlockTableRecord
  2
TAKACHI-TITLE
340
0
102
{BLKREFS
331
65B
102
}
  0
BLOCK_RECORD
  5
81E
102
{ACAD_XDICTIONARY
360
826
102
}
330
1
100
AcDbSymbolTableRecord
100
AcDbBlockTableRecord
  2
TK-A3
340
0
102
{BLKREFS
331
659
102
}
  0
BLOCK_RECORD
  5
82C
102
{ACAD_XDICTIONARY
360
885
102
}
330
1
100
AcDbSymbolTableRecord
100
AcDbBlockTableRecord
  2
TK-TITLE
340
0
102
{BLKREFS
331
65B
102
}
  0
BLOCK_RECORD
  5
F2C
330
1
100
AcDbSymbolTableRecord
100
AcDbBlockTableRecord
  2
*S8
340
0
  0
BLOCK_RECORD
  5
F49
330
1
100
AcDbSymbolTableRecord
100
AcDbBlockTableRecord
  2
*S9
340
0
  0
BLOCK_RECORD
  5
F50
330
1
100
AcDbSymbolTableRecord
100
AcDbBlockTableRecord
  2
*S10
340
0
  0
ENDTAB
  0
ENDSEC
  0
SECTION
  2
BLOCKS
  0
BLOCK
  5
20
330
1F
100
AcDbEntity
  8
0
100
AcDbBlockBegin
  2
*Model_Space
 70
     0
 10
0.0
 20
0.0
 30
0.0
  3
*Model_Space
  1

  0
ENDBLK
  5
21
330
1F
100
AcDbEntity
  8
0
100
AcDbBlockEnd
  0
BLOCK
  5
24
330
23
100
AcDbEntity
 67
     1
  8
0
100
AcDbBlockBegin
  2
*Paper_Space
 70
     0
 10
0.0
 20
0.0
 30
0.0
  3
*Paper_Space
  1

  0
ENDBLK
  5
25
330
23
100
AcDbEntity
 67
     1
  8
0
100
AcDbBlockEnd
  0
BLOCK
  5
1C
330
1B
100
AcDbEntity
  8
0
100
AcDbBlockBegin
  2
*Paper_Space0
 70
     0
 10
0.0
 20
0.0
 30
0.0
  3
*Paper_Space0
  1

  0
VIEWPORT
  5
178
102
{ACAD_XDICTIONARY
360
F62
102
}
330
1B
100
AcDbEntity
  8
0
100
AcDbViewport
 10
133.3499908447265
 20
101.5999970436096
 30
0.0
 40
370.2266912936524
 41
228.4221935424805
 69
     0
 12
133.3499908447265
 22
101.5999970436096
 13
0.0
 23
0.0
 14
10.0
 24
10.0
 15
10.0
 25
10.0
 16
0.0
 26
0.0
 36
1.0
 17
0.0
 27
0.0
 37
0.0
 42
50.0
 43
0.0
 44
0.0
 45
228.4221935424805
 50
0.0
 51
0.0
 72
   100
 90
    32800
  1

281
     0
 71
     1
 74
     0
110
0.0
120
0.0
130
0.0
111
1.0
121
0.0
131
0.0
112
0.0
122
1.0
132
0.0
 79
     0
146
0.0
  0
ENDBLK
  5
1D
330
1B
100
AcDbEntity
  8
0
100
AcDbBlockEnd
  0
BLOCK
  5
89
330
87
100
AcDbEntity
  8
0
100
AcDbBlockBegin
  2
GENAXEH
 70
     0
 10
0.0
 20
0.0
 30
0.0
  3
GENAXEH
  1

  0
LINE
  5
88
330
87
100
AcDbEntity
  8
0
100
AcDbLine
 10
-1.0
 20
0.0
 30
0.0
 11
1.0
 21
0.0
 31
0.0
  0
ENDBLK
  5
8A
330
87
100
AcDbEntity
  8
0
100
AcDbBlockEnd
  0
BLOCK
  5
40B
330
407
100
AcDbEntity
  8
0
100
AcDbBlockBegin
  2
_Open30
 70
     0
 10
0.0
 20
0.0
 30
0.0
  3
_Open30
  1

  0
LINE
  5
408
330
407
100
AcDbEntity
  8
0
  6
ByBlock
 62
     0
370
    -2
100
AcDbLine
 10
-1.0
 20
0.26794919
 30
0.0
 11
0.0
 21
0.0
 31
0.0
  0
LINE
  5
409
330
407
100
AcDbEntity
  8
0
  6
ByBlock
 62
     0
370
    -2
100
AcDbLine
 10
0.0
 20
0.0
 30
0.0
 11
-1.0
 21
-0.26794919
 31
0.0
  0
LINE
  5
40A
330
407
100
AcDbEntity
  8
0
  6
ByBlock
 62
     0
370
    -2
100
AcDbLine
 10
0.0
 20
0.0
 30
0.0
 11
-1.0
 21
0.0
 31
0.0
  0
ENDBLK
  5
40C
330
407
100
AcDbEntity
  8
0
100
AcDbBlockEnd
  0
BLOCK
  5
5A7
330
59D
100
AcDbEntity
  8
0
100
AcDbBlockBegin
  2
TAKACHI-A3
 70
     0
 10
0.0
 20
0.0
 30
0.0
  3
TAKACHI-A3
  1

  0
LWPOLYLINE
  5
59E
330
59D
100
AcDbEntity
  8
0
100
AcDbPolyline
 90
        4
 70
     1
 43
0.0
 10
10.0
 20
0.0
 10
410.0
 20
0.0
 10
410.0
 20
280.0
 10
10.00000000000003
 20
280.0
1001
GENIUS_GENREC_14
1002
{
1000
PYDIR
1011
10.00000000000001
1021
280.0
1031
0.0
1002
}
1002
{
1000
PXDIR
1011
410.0
1021
0.0
1031
0.0
1002
}
1002
{
1000
PORI
1011
10.0
1021
0.0
1031
0.0
1002
}
1002
{
1000
PINS
1011
210.0
1021
139.9999999999999
1031
0.0
1002
}
1002
{
1000
HVAL
1000
280
1002
}
1002
{
1000
H
1070
     2
1002
}
1002
{
1000
WVAL
1000
400
1002
}
1002
{
1000
W
1070
     2
1002
}
1002
{
1000
C
1070
     4
1002
}
1001
GENIUS_GENODEF_13
1002
{
1000
HIER
1070
     0
1002
}
1002
{
1000
MANEDIT
1070
     0
1002
}
1002
{
1000
NOSEL
1070
     0
1002
}
1002
{
1000
BEHIND
1070
     0
1002
}
1002
{
1000
REACTOR
1002
}
1001
GENIUS_GENOBJ-N-REC_13
1002
{
1000
OWNER
1000
GEN
1002
}
  0
TEXT
  5
59F
330
59D
100
AcDbEntity
  8
0
 60
     1
100
AcDbText
 10
15.00000000000003
 20
50.0
 30
0.0
 40
2.5
  1
!GENTITLE-LL
100
AcDbText
  0
TEXT
  5
5A0
330
59D
100
AcDbEntity
  8
0
 60
     1
100
AcDbText
 10
410.0
 20
0.0
 30
0.0
 40
2.5
  1
!GENTITLE-INSERT
100
AcDbText
  0
TEXT
  5
5A1
330
59D
100
AcDbEntity
  8
0
 60
     1
100
AcDbText
 10
405.0
 20
275.0
 30
0.0
 40
2.5
  1
!GENTITLE-RU
100
AcDbText
  0
TEXT
  5
5A2
330
59D
100
AcDbEntity
  8
0
 60
     1
100
AcDbText
 10
410.0
 20
280.0
 30
0.0
 40
2.5
  1
!GENTITLE-MAX
100
AcDbText
  0
LINE
  5
5A3
330
59D
100
AcDbEntity
  8
0
100
AcDbLine
 10
366.0
 20
275.0
 30
0.0
 11
410.0
 21
275.0
 31
0.0
  0
MTEXT
  5
5A4
330
59D
100
AcDbEntity
  8
0
100
AcDbMText
 10
409.3592953827348
 20
276.108542987227
 30
0.0
 40
2.5
 41
43.07840397728298
 71
     9
 72
     5
  1
(文書番号：TY-34)2004.10.29
 73
     1
 44
1.0
1001
ACAD
1000
MTEXTBEGIN
1070
    73
1070
     1
1070
    44
1040
1.0
1070
    74
1070
     0
1000
MTEXTEND
  0
LINE
  5
5A5
330
59D
100
AcDbEntity
  8
0
100
AcDbLine
 10
366.0
 20
280.0
 30
0.0
 11
366.0
 21
275.0
 31
0.0
  0
ENDBLK
  5
5A8
330
59D
100
AcDbEntity
  8
0
100
AcDbBlockEnd
  0
BLOCK
  5
60B
330
5B5
100
AcDbEntity
  8
0
100
AcDbBlockBegin
  2
TAKACHI-TITLE
 70
     2
 10
0.0
 20
0.0
 30
0.0
  3
TAKACHI-TITLE
  1

  0
LINE
  5
5B6
330
5B5
100
AcDbEntity
  8
RAHM2
100
AcDbLine
 10
-195.0
 20
30.00000000000003
 30
0.0
 11
-94.0
 21
30.00000000000003
 31
0.0
  0
LINE
  5
5B7
330
5B5
100
AcDbEntity
  8
RAHM2
100
AcDbLine
 10
-195.0
 20
35.00000000000003
 30
0.0
 11
-94.0
 21
35.00000000000003
 31
0.0
  0
LINE
  5
5B8
330
5B5
100
AcDbEntity
  8
RAHM2
100
AcDbLine
 10
-195.0
 20
40.00000000000002
 30
0.0
 11
-94.0
 21
40.00000000000002
 31
0.0
  0
LINE
  5
5B9
330
5B5
100
AcDbEntity
  8
RAHM2
100
AcDbLine
 10
-195.0
 20
45.00000000000002
 30
0.0
 11
-94.0
 21
45.00000000000002
 31
0.0
  0
LINE
  5
5BA
330
5B5
100
AcDbEntity
  8
0
100
AcDbLine
 10
-195.0
 20
7.0
 30
0.0
 11
-94.0
 21
7.0
 31
0.0
  0
LINE
  5
5BB
330
5B5
100
AcDbEntity
  8
0
100
AcDbLine
 10
-195.0
 20
19.99999999999997
 30
0.0
 11
-94.0
 21
19.99999999999997
 31
0.0
  0
ATTDEF
  5
5BC
330
5B5
100
AcDbEntity
  8
0
100
AcDbText
 10
-183.2438527145607
 20
8.950850524428082
 30
0.0
 40
2.5
  1

 11
-183.2438527145607
 21
8.617517191094748
 31
0.0
100
AcDbAttributeDefinition
  3
サブタイトル
  2
GEN-TITLE-DES2
 70
     0
 74
     1
  0
ATTDEF
  5
5BD
330
5B5
100
AcDbEntity
  8
0
100
AcDbText
 10
-183.2438527145607
 20
2.017517191094748
 30
0.0
 40
3.0
  1

 11
-183.2438527145607
 21
1.617517191094748
 31
0.0
100
AcDbAttributeDefinition
  3
図番
  2
GEN-TITLE-NR
 70
     0
 74
     1
  0
MTEXT
  5
5BE
330
5B5
100
AcDbEntity
  8
RAHM2
100
AcDbMText
 10
-193.8002551371314
 20
5.801035407279641
 30
0.0
 40
2.5
 41
90.0
 71
     1
 72
     5
  1
図番
 73
     1
 44
1.0
1001
ACAD
1000
MTEXTBEGIN
1070
    73
1070
     1
1070
    44
1040
1.0
1070
    74
1070
     0
1000
MTEXTEND
  0
ATTDEF
  5
5BF
330
5B5
100
AcDbEntity
  8
0
100
AcDbText
 10
-183.2438527145607
 20
14.40728619501834
 30
0.0
 40
4.0
  1

 11
-183.2438527145607
 21
13.87395286168501
 31
0.0
100
AcDbAttributeDefinition
  3
品名
  2
GEN-TITLE-DES1
 70
     0
 74
     1
  0
LINE
  5
5C0
330
5B5
100
AcDbEntity
  8
RAHM2
100
AcDbLine
 10
-187.5751288694036
 20
30.40000000000004
 30
0.0
 11
-190.0
 21
34.60000000000003
 31
0.0
  0
LINE
  5
5C1
330
5B5
100
AcDbEntity
  8
RAHM2
100
AcDbLine
 10
-190.0
 20
34.60000000000003
 30
0.0
 11
-192.4248711305964
 21
30.40000000000004
 31
0.0
  0
LINE
  5
5C2
330
5B5
100
AcDbEntity
  8
RAHM2
100
AcDbLine
 10
-185.0
 20
50.00000000000003
 30
0.0
 11
-185.0
 21
19.99999999999994
 31
0.0
  0
LINE
  5
5C3
330
5B5
100
AcDbEntity
  8
RAHM2
100
AcDbLine
 10
-192.4248711305964
 20
30.40000000000004
 30
0.0
 11
-187.5751288694036
 21
30.40000000000004
 31
0.0
  0
MTEXT
  5
5C4
330
5B5
100
AcDbEntity
  8
RAHM2
100
AcDbMText
 10
-190.0
 20
22.49999999999997
 30
0.0
 40
2.5
 41
10.0
 71
     5
 72
     5
  1
符号
 73
     1
 44
1.0
1001
ACAD
1000
MTEXTBEGIN
1070
    73
1070
     1
1070
    44
1040
1.0
1070
    74
1070
     0
1000
MTEXTEND
  0
MTEXT
  5
5C5
330
5B5
100
AcDbEntity
  8
RAHM2
100
AcDbMText
 10
-193.8002551371314
 20
18.80103540727961
 30
0.0
 40
2.5
 41
90.0
 71
     1
 72
     5
  1
品名
 73
     1
 44
1.0
1001
ACAD
1000
MTEXTBEGIN
1070
    73
1070
     1
1070
    44
1040
1.0
1070
    74
1070
     0
1000
MTEXTEND
  0
LINE
  5
5C6
330
5B5
100
AcDbEntity
  8
RAHM2
100
AcDbLine
 10
-192.4248711305964
 20
45.40000000000003
 30
0.0
 11
-187.5751288694036
 21
45.40000000000003
 31
0.0
  0
LINE
  5
5C7
330
5B5
100
AcDbEntity
  8
RAHM2
100
AcDbLine
 10
-187.5751288694036
 20
45.40000000000003
 30
0.0
 11
-190.0
 21
49.60000000000002
 31
0.0
  0
LINE
  5
5C8
330
5B5
100
AcDbEntity
  8
RAHM2
100
AcDbLine
 10
-192.4248711305964
 20
40.40000000000003
 30
0.0
 11
-187.5751288694036
 21
40.40000000000003
 31
0.0
  0
LINE
  5
5C9
330
5B5
100
AcDbEntity
  8
RAHM2
100
AcDbLine
 10
-187.5751288694036
 20
40.40000000000003
 30
0.0
 11
-190.0
 21
44.60000000000002
 31
0.0
  0
LINE
  5
5CA
330
5B5
100
AcDbEntity
  8
RAHM2
100
AcDbLine
 10
-192.4248711305964
 20
35.40000000000004
 30
0.0
 11
-187.5751288694036
 21
35.40000000000004
 31
0.0
  0
LINE
  5
5CB
330
5B5
100
AcDbEntity
  8
RAHM2
100
AcDbLine
 10
-187.5751288694036
 20
35.40000000000004
 30
0.0
 11
-190.0
 21
39.60000000000002
 31
0.0
  0
LINE
  5
5CC
330
5B5
100
AcDbEntity
  8
RAHM2
100
AcDbLine
 10
-190.0
 20
39.60000000000002
 30
0.0
 11
-192.4248711305964
 21
35.40000000000004
 31
0.0
  0
LINE
  5
5CD
330
5B5
100
AcDbEntity
  8
RAHM2
100
AcDbLine
 10
-190.0
 20
44.60000000000002
 30
0.0
 11
-192.4248711305964
 21
40.40000000000003
 31
0.0
  0
LINE
  5
5CE
330
5B5
100
AcDbEntity
  8
RAHM2
100
AcDbLine
 10
-190.0
 20
49.60000000000002
 30
0.0
 11
-192.4248711305964
 21
45.40000000000003
 31
0.0
  0
LINE
  5
5CF
330
5B5
100
AcDbEntity
  8
RAHM2
100
AcDbLine
 10
-129.0
 20
50.00000000000003
 30
0.0
 11
-129.0
 21
19.99999999999994
 31
0.0
  0
MTEXT
  5
5D0
330
5B5
100
AcDbEntity
  8
RAHM2
100
AcDbMText
 10
-157.1448171868856
 20
22.49999999999997
 30
0.0
 40
2.5
 41
45.0
 71
     5
 72
     5
  1
変更記事
 73
     1
 44
1.0
1001
ACAD
1000
MTEXTBEGIN
1070
    73
1070
     1
1070
    44
1040
1.0
1070
    74
1070
     0
1000
MTEXTEND
  0
LINE
  5
5D1
330
5B5
100
AcDbEntity
  8
0
100
AcDbLine
 10
-34.0
 20
50.0
 30
0.0
 11
-34.0
 21
0.0
 31
0.0
  0
LINE
  5
5D2
330
5B5
100
AcDbEntity
  8
0
100
AcDbLine
 10
-94.0
 20
50.0
 30
0.0
 11
-94.0
 21
0.0
 31
0.0
  0
MTEXT
  5
5D3
330
5B5
100
AcDbEntity
  8
0
100
AcDbMText
 10
-64.0
 20
5.0
 30
0.0
 40
3.5
 41
60.0
 71
     5
 72
     5
  1
\fＭＳ ゴシック|b0|i0|c128|p49;株式会社タカチ電機工業
 73
     1
 44
1.0
1001
ACAD
1000
MTEXTBEGIN
1070
    73
1070
     1
1070
    44
1040
1.0
1070
    74
1070
     0
1000
MTEXTEND
  0
LINE
  5
5D4
330
5B5
100
AcDbEntity
  8
0
100
AcDbLine
 10
-94.0
 20
10.0
 30
0.0
 11
-34.0
 21
10.0
 31
0.0
  0
ATTDEF
  5
5D5
330
5B5
100
AcDbEntity
  8
0
100
AcDbText
 10
-58.01405119799745
 20
39.25500556178349
 30
0.0
 40
3.0
  1

 72
     2
 11
-58.01405119799745
 21
39.25500556178349
 31
0.0
100
AcDbAttributeDefinition
  3
尺度
  2
GEN-TITLE-SCA
 70
     0
  0
ATTDEF
  5
5D6
330
5B5
100
AcDbEntity
  8
0
100
AcDbText
 10
-77.00284966649007
 20
31.02180787943475
 30
0.0
 40
3.0
  1

 11
-77.00284966649007
 21
30.62180787943475
 31
0.0
100
AcDbAttributeDefinition
  3
材質
  2
GEN-TITLE-MAT1
 70
     0
 74
     1
  0
ATTDEF
  5
5D7
330
5B5
100
AcDbEntity
  8
0
100
AcDbText
 10
-77.00284966649007
 20
21.02180787943475
 30
0.0
 40
3.0
  1

 11
-77.00284966649007
 21
20.62180787943475
 31
0.0
100
AcDbAttributeDefinition
  3
表面処理
  2
GEN-TITLE-MAT2
 70
     0
 74
     1
  0
ATTDEF
  5
5D8
330
5B5
100
AcDbEntity
  8
0
100
AcDbText
 10
-77.00284966649007
 20
12.01751719109475
 30
0.0
 40
3.0
  1

 11
-77.00284966649007
 21
11.61751719109475
 31
0.0
100
AcDbAttributeDefinition
  3
日付
  2
GEN-TITLE-DAT
 70
     0
 74
     1
  0
LINE
  5
5D9
330
5B5
100
AcDbEntity
  8
0
100
AcDbLine
 10
-94.0
 20
37.5
 30
0.0
 11
-34.0
 21
37.5
 31
0.0
  0
LINE
  5
5DA
330
5B5
100
AcDbEntity
  8
0
100
AcDbLine
 10
-94.0
 20
27.5
 30
0.0
 11
-34.0
 21
27.5
 31
0.0
  0
LINE
  5
5DB
330
5B5
100
AcDbEntity
  8
0
100
AcDbLine
 10
-94.0
 20
17.5
 30
0.0
 11
-34.0
 21
17.5
 31
0.0
  0
LINE
  5
5DC
330
5B5
100
AcDbEntity
  8
RAHM2
100
AcDbLine
 10
-109.0
 20
50.00000000000003
 30
0.0
 11
-109.0
 21
19.99999999999994
 31
0.0
  0
MTEXT
  5
5DD
330
5B5
100
AcDbEntity
  8
RAHM2
100
AcDbMText
 10
-119.4582894723942
 20
32.50000000000003
 30
0.0
 40
2.5
 41
20.0
 71
     5
 72
     5
  1
・  ・   
 73
     1
 44
1.0
1001
ACAD
1000
MTEXTBEGIN
1070
    73
1070
     1
1070
    44
1040
1.0
1070
    74
1070
     0
1000
MTEXTEND
  0
MTEXT
  5
5DE
330
5B5
100
AcDbEntity
  8
RAHM2
100
AcDbMText
 10
-118.738119805002
 20
22.49999999999997
 30
0.0
 40
2.5
 41
20.0
 71
     5
 72
     5
  1
年・月・日
 73
     1
 44
1.0
1001
ACAD
1000
MTEXTBEGIN
1070
    73
1070
     1
1070
    44
1040
1.0
1070
    74
1070
     0
1000
MTEXTEND
  0
MTEXT
  5
5DF
330
5B5
100
AcDbEntity
  8
RAHM2
100
AcDbMText
 10
-101.5
 20
22.49999999999997
 30
0.0
 40
2.5
 41
15.0
 71
     5
 72
     5
  1
担当
 73
     1
 44
1.0
1001
ACAD
1000
MTEXTBEGIN
1070
    73
1070
     1
1070
    44
1040
1.0
1070
    74
1070
     0
1000
MTEXTEND
  0
MTEXT
  5
5E0
330
5B5
100
AcDbEntity
  8
RAHM2
100
AcDbMText
 10
-119.4582894723942
 20
42.50000000000002
 30
0.0
 40
2.5
 41
20.0
 71
     5
 72
     5
  1
・  ・   
 73
     1
 44
1.0
1001
ACAD
1000
MTEXTBEGIN
1070
    73
1070
     1
1070
    44
1040
1.0
1070
    74
1070
     0
1000
MTEXTEND
  0
MTEXT
  5
5E1
330
5B5
100
AcDbEntity
  8
RAHM2
100
AcDbMText
 10
-119.4582894723942
 20
37.50000000000003
 30
0.0
 40
2.5
 41
20.0
 71
     5
 72
     5
  1
・  ・   
 73
     1
 44
1.0
1001
ACAD
1000
MTEXTBEGIN
1070
    73
1070
     1
1070
    44
1040
1.0
1070
    74
1070
     0
1000
MTEXTEND
  0
MTEXT
  5
5E2
330
5B5
100
AcDbEntity
  8
RAHM2
100
AcDbMText
 10
-119.4582894723942
 20
47.50000000000002
 30
0.0
 40
2.5
 41
20.0
 71
     5
 72
     5
  1
・  ・   
 73
     1
 44
1.0
1001
ACAD
1000
MTEXTBEGIN
1070
    73
1070
     1
1070
    44
1040
1.0
1070
    74
1070
     0
1000
MTEXTEND
  0
MTEXT
  5
5E3
330
5B5
100
AcDbEntity
  8
RAHM2
100
AcDbMText
 10
-92.80025513713145
 20
16.30103540727964
 30
0.0
 40
2.5
 41
60.0
 71
     1
 72
     5
  1
日付
 73
     1
 44
1.0
1001
ACAD
1000
MTEXTBEGIN
1070
    73
1070
     1
1070
    44
1040
1.0
1070
    74
1070
     0
1000
MTEXTEND
  0
MTEXT
  5
5E4
330
5B5
100
AcDbEntity
  8
RAHM2
100
AcDbMText
 10
-92.80025513713145
 20
26.30103540727964
 30
0.0
 40
2.5
 41
60.0
 71
     1
 72
     5
  1
表面処理
 73
     1
 44
1.0
1001
ACAD
1000
MTEXTBEGIN
1070
    73
1070
     1
1070
    44
1040
1.0
1070
    74
1070
     0
1000
MTEXTEND
  0
LINE
  5
5E5
330
5B5
100
AcDbEntity
  8
7A
100
AcDbLine
 10
-89.0
 20
43.75
 30
0.0
 11
-75.2186915997147
 21
43.75
 31
0.0
1001
GENIUS_GENOREF_13
1005
5F8
  0
LINE
  5
5E6
330
5B5
100
AcDbEntity
  8
0
100
AcDbLine
 10
-84.0
 20
45.75
 30
0.0
 11
-76.0
 21
46.74999999999999
 31
0.0
  0
LINE
  5
5E7
330
5B5
100
AcDbEntity
  8
0
100
AcDbLine
 10
-76.0
 20
40.75
 30
0.0
 11
-84.0
 21
41.74999999999999
 31
0.0
  0
LINE
  5
5E8
330
5B5
100
AcDbEntity
  8
7A
100
AcDbLine
 10
-89.0
 20
43.75
 30
0.0
 11
-89.0
 21
47.32478664473148
 31
0.0
1001
GENIUS_GENOREF_13
1005
5F8
  0
CIRCLE
  5
5E9
330
5B5
100
AcDbEntity
  8
0
100
AcDbCircle
 10
-89.0
 20
43.75
 30
0.0
 40
2.0
  0
CIRCLE
  5
5EA
330
5B5
100
AcDbEntity
  8
0
100
AcDbCircle
 10
-89.0
 20
43.75
 30
0.0
 40
3.0
  0
LINE
  5
5EB
330
5B5
100
AcDbEntity
  8
0
100
AcDbLine
 10
-84.0
 20
41.74999999999999
 30
0.0
 11
-84.0
 21
45.75
 31
0.0
  0
MTEXT
  5
5EC
330
5B5
100
AcDbEntity
  8
RAHM2
100
AcDbMText
 10
-92.80025513713145
 20
36.30103540727964
 30
0.0
 40
2.5
 41
60.0
 71
     1
 72
     5
  1
材質
 73
     1
 44
1.0
1001
ACAD
1000
MTEXTBEGIN
1070
    73
1070
     1
1070
    44
1040
1.0
1070
    74
1070
     0
1000
MTEXTEND
  0
LINE
  5
5ED
330
5B5
100
AcDbEntity
  8
7A
100
AcDbLine
 10
-89.0
 20
43.75
 30
0.0
 11
-92.72303737125117
 21
43.75
 31
0.0
1001
GENIUS_GENOREF_13
1005
5F8
  0
LINE
  5
5EE
330
5B5
100
AcDbEntity
  8
7A
100
AcDbLine
 10
-89.0
 20
43.75
 30
0.0
 11
-89.0
 21
40.03991724228479
 31
0.0
1001
GENIUS_GENOREF_13
1005
5F8
  0
LINE
  5
5EF
330
5B5
100
AcDbEntity
  8
0
100
AcDbLine
 10
-76.0
 20
46.74999999999999
 30
0.0
 11
-76.0
 21
40.75
 31
0.0
  0
LINE
  5
5F0
330
5B5
100
AcDbEntity
  8
0
100
AcDbLine
 10
-74.0
 20
50.0
 30
0.0
 11
-74.0
 21
37.5
 31
0.0
  0
MTEXT
  5
5F1
330
5B5
100
AcDbEntity
  8
RAHM2
100
AcDbMText
 10
-72.80025513713145
 20
48.80103540727964
 30
0.0
 40
2.5
 41
20.0
 71
     1
 72
     5
  1
尺度
 73
     1
 44
1.0
1001
ACAD
1000
MTEXTBEGIN
1070
    73
1070
     1
1070
    44
1040
1.0
1070
    74
1070
     0
1000
MTEXTEND
  0
ATTDEF
  5
5F2
330
5B5
100
AcDbEntity
  8
0
100
AcDbText
 10
-37.76317379391503
 20
39.25500556178349
 30
0.0
 40
3.0
  1

 72
     2
 11
-37.76317379391503
 21
39.25500556178349
 31
0.0
100
AcDbAttributeDefinition
  3
数量
  2
GEN-TITLE-QTY
 70
     0
  0
LINE
  5
5F3
330
5B5
100
AcDbEntity
  8
0
100
AcDbLine
 10
-34.0
 20
25.0
 30
0.0
 11
0.0
 21
25.0
 31
0.0
  0
LINE
  5
5F4
330
5B5
100
AcDbEntity
  8
0
100
AcDbLine
 10
-54.0
 20
50.0
 30
0.0
 11
-54.0
 21
37.5
 31
0.0
  0
MTEXT
  5
5F5
330
5B5
100
AcDbEntity
  8
RAHM2
100
AcDbMText
 10
-52.80025513713145
 20
48.80103540727964
 30
0.0
 40
2.5
 41
20.0
 71
     1
 72
     5
  1
数量
 73
     1
 44
1.0
1001
ACAD
1000
MTEXTBEGIN
1070
    73
1070
     1
1070
    44
1040
1.0
1070
    74
1070
     0
1000
MTEXTEND
  0
MTEXT
  5
5F6
330
5B5
100
AcDbEntity
  8
RAHM2
100
AcDbMText
 10
-25.5
 20
23.80103540727964
 30
0.0
 40
2.5
 41
17.0
 71
     2
 72
     5
  1
承認
 73
     1
 44
1.0
1001
ACAD
1000
MTEXTBEGIN
1070
    73
1070
     1
1070
    44
1040
1.0
1070
    74
1070
     0
1000
MTEXTEND
  0
MTEXT
  5
5F7
330
5B5
100
AcDbEntity
  8
RAHM2
100
AcDbMText
 10
-25.5
 20
48.80103540727964
 30
0.0
 40
2.5
 41
17.0
 71
     2
 72
     5
  1
承認
 73
     1
 44
1.0
1001
ACAD
1000
MTEXTBEGIN
1070
    73
1070
     1
1070
    44
1040
1.0
1070
    74
1070
     0
1000
MTEXTEND
  0
POINT
  5
5F8
330
5B5
100
AcDbEntity
  8
0
 60
     1
100
AcDbPoint
 10
-320.5355579819676
 20
-138.1104841268254
 30
0.0
1001
GENIUS_GENODEF_13
1002
{
1000
HIER
1070
    10
1002
}
1002
{
1000
MANEDIT
1070
     0
1002
}
1002
{
1000
NOSEL
1070
     0
1002
}
1002
{
1000
BEHIND
1070
     0
1002
}
1002
{
1000
REACTOR
1002
}
1001
GENIUS_GENOBJ-N-CRS_13
1002
{
1000
OWNER
1000
GEN
1002
}
1001
GENIUS_GENOENT_13
1002
{
1000
MYREF
1005
5F8
1002
}
1002
{
1000
GRP
1005
0
1002
}
1001
GENIUS_GENOLIS_13
1002
{
1000
ENT
1005
5EE
1005
5ED
1005
5E8
1005
5E5
1002
}
  0
LINE
  5
5F9
330
5B5
100
AcDbEntity
  8
RAHM2
100
AcDbLine
 10
-190.0
 20
29.60000000000002
 30
0.0
 11
-192.4248711305964
 21
25.40000000000004
 31
0.0
  0
LINE
  5
5FA
330
5B5
100
AcDbEntity
  8
RAHM2
100
AcDbLine
 10
-187.5751288694036
 20
25.40000000000004
 30
0.0
 11
-190.0
 21
29.60000000000002
 31
0.0
  0
LINE
  5
5FB
330
5B5
100
AcDbEntity
  8
RAHM2
100
AcDbLine
 10
-192.4248711305964
 20
25.40000000000004
 30
0.0
 11
-187.5751288694036
 21
25.40000000000004
 31
0.0
  0
LINE
  5
5FC
330
5B5
100
AcDbEntity
  8
RAHM2
100
AcDbLine
 10
-195.0
 20
25.00000000000003
 30
0.0
 11
-94.0
 21
25.00000000000003
 31
0.0
  0
MTEXT
  5
5FD
330
5B5
100
AcDbEntity
  8
RAHM2
100
AcDbMText
 10
-119.4582894723942
 20
27.50000000000003
 30
0.0
 40
2.5
 41
20.0
 71
     5
 72
     5
  1
・  ・   
 73
     1
 44
1.0
1001
ACAD
1000
MTEXTBEGIN
1070
    73
1070
     1
1070
    44
1040
1.0
1070
    74
1070
     0
1000
MTEXTEND
  0
TEXT
  5
5FE
330
5B5
100
AcDbEntity
  8
RAHM2
100
AcDbText
 10
-190.8155863565801
 20
25.98333333333337
 30
0.0
 40
2.5
  1
1
 72
     1
 11
-190.1905863565802
 21
25.65000000000003
 31
0.0
100
AcDbText
 73
     1
  0
TEXT
  5
5FF
330
5B5
100
AcDbEntity
  8
RAHM2
100
AcDbText
 10
-190.9183316929134
 20
30.98333333333337
 30
0.0
 40
2.5
  1
2
 72
     1
 11
-190.0
 21
30.65000000000003
 31
0.0
100
AcDbText
 73
     1
  0
TEXT
  5
600
330
5B5
100
AcDbEntity
  8
RAHM2
100
AcDbText
 10
-190.9267766952966
 20
35.98333333333334
 30
0.0
 40
2.5
  1
3
 72
     1
 11
-190.0
 21
35.65000000000001
 31
0.0
100
AcDbText
 73
     1
  0
TEXT
  5
601
330
5B5
100
AcDbEntity
  8
RAHM2
100
AcDbText
 10
-191.0
 20
40.98333333333337
 30
0.0
 40
2.5
  1
4
 72
     1
 11
-190.0
 21
40.65000000000003
 31
0.0
100
AcDbText
 73
     1
  0
TEXT
  5
602
330
5B5
100
AcDbEntity
  8
RAHM2
100
AcDbText
 10
-190.9267766952966
 20
45.98333333333337
 30
0.0
 40
2.5
  1
5
 72
     1
 11
-190.0
 21
45.65000000000003
 31
0.0
100
AcDbText
 73
     1
  0
LINE
  5
603
330
5B5
100
AcDbEntity
  8
0
100
AcDbLine
 10
-17.0
 20
50.0
 30
0.0
 11
-17.0
 21
0.0
 31
0.0
  0
LINE
  5
604
330
5B5
100
AcDbEntity
  8
0
100
AcDbLine
 10
-195.0
 20
0.0
 30
0.0
 11
0.0
 21
0.0
 31
0.0
1001
GENIUS_GENREC_14
1002
{
1000
PYDIR
1011
-184.0
1021
50.0
1031
0.0
1002
}
1002
{
1000
PXDIR
1011
0.0
1021
0.0
1031
0.0
1002
}
1002
{
1000
PORI
1011
-184.0
1021
0.0
1031
0.0
1002
}
1002
{
1000
PINS
1011
-100.5
1021
25.0
1031
0.0
1002
}
1002
{
1000
HVAL
1000
50
1002
}
1002
{
1000
H
1070
     2
1002
}
1002
{
1000
WVAL
1000
167
1002
}
1002
{
1000
W
1070
     2
1002
}
1002
{
1000
C
1070
     4
1002
}
1001
GENIUS_GENODEF_13
1002
{
1000
HIER
1070
     0
1002
}
1002
{
1000
MANEDIT
1070
     0
1002
}
1002
{
1000
NOSEL
1070
     0
1002
}
1002
{
1000
BEHIND
1070
     0
1002
}
1002
{
1000
REACTOR
1002
}
1001
GENIUS_GENOBJ-N-REC_13
1002
{
1000
OWNER
1000
GEN
1002
}
  0
LINE
  5
605
330
5B5
100
AcDbEntity
  8
0
100
AcDbLine
 10
0.0
 20
0.0
 30
0.0
 11
0.0
 21
50.0
 31
0.0
1001
GENIUS_GENREC_14
1002
{
1000
PYDIR
1011
-184.0
1021
50.0
1031
0.0
1002
}
1002
{
1000
PXDIR
1011
0.0
1021
0.0
1031
0.0
1002
}
1002
{
1000
PORI
1011
-184.0
1021
0.0
1031
0.0
1002
}
1002
{
1000
PINS
1011
-100.5
1021
25.0
1031
0.0
1002
}
1002
{
1000
HVAL
1000
50
1002
}
1002
{
1000
H
1070
     2
1002
}
1002
{
1000
WVAL
1000
167
1002
}
1002
{
1000
W
1070
     2
1002
}
1002
{
1000
C
1070
     4
1002
}
1001
GENIUS_GENODEF_13
1002
{
1000
HIER
1070
     0
1002
}
1002
{
1000
MANEDIT
1070
     0
1002
}
1002
{
1000
NOSEL
1070
     0
1002
}
1002
{
1000
BEHIND
1070
     0
1002
}
1002
{
1000
REACTOR
1002
}
1001
GENIUS_GENOBJ-N-REC_13
1002
{
1000
OWNER
1000
GEN
1002
}
  0
LINE
  5
606
330
5B5
100
AcDbEntity
  8
0
100
AcDbLine
 10
0.0
 20
50.0
 30
0.0
 11
-195.0
 21
50.00000000000003
 31
0.0
1001
GENIUS_GENREC_14
1002
{
1000
PYDIR
1011
-184.0
1021
50.0
1031
0.0
1002
}
1002
{
1000
PXDIR
1011
0.0
1021
0.0
1031
0.0
1002
}
1002
{
1000
PORI
1011
-184.0
1021
0.0
1031
0.0
1002
}
1002
{
1000
PINS
1011
-100.5
1021
25.0
1031
0.0
1002
}
1002
{
1000
HVAL
1000
50
1002
}
1002
{
1000
H
1070
     2
1002
}
1002
{
1000
WVAL
1000
167
1002
}
1002
{
1000
W
1070
     2
1002
}
1002
{
1000
C
1070
     4
1002
}
1001
GENIUS_GENODEF_13
1002
{
1000
HIER
1070
     0
1002
}
1002
{
1000
MANEDIT
1070
     0
1002
}
1002
{
1000
NOSEL
1070
     0
1002
}
1002
{
1000
BEHIND
1070
     0
1002
}
1002
{
1000
REACTOR
1002
}
1001
GENIUS_GENOBJ-N-REC_13
1002
{
1000
OWNER
1000
GEN
1002
}
  0
LINE
  5
607
330
5B5
100
AcDbEntity
  8
0
100
AcDbLine
 10
-195.0
 20
50.00000000000003
 30
0.0
 11
-195.0
 21
0.0
 31
0.0
1001
GENIUS_GENREC_14
1002
{
1000
PYDIR
1011
-195.0
1021
50.0
1031
0.0
1002
}
1002
{
1000
PXDIR
1011
-11.0
1021
0.0
1031
0.0
1002
}
1002
{
1000
PORI
1011
-195.0
1021
0.0
1031
0.0
1002
}
1002
{
1000
PINS
1011
-111.5
1021
25.0
1031
0.0
1002
}
1002
{
1000
HVAL
1000
50
1002
}
1002
{
1000
H
1070
     2
1002
}
1002
{
1000
WVAL
1000
167
1002
}
1002
{
1000
W
1070
     2
1002
}
1002
{
1000
C
1070
     4
1002
}
1001
GENIUS_GENODEF_13
1002
{
1000
HIER
1070
     0
1002
}
1002
{
1000
MANEDIT
1070
     0
1002
}
1002
{
1000
NOSEL
1070
     0
1002
}
1002
{
1000
BEHIND
1070
     0
1002
}
1002
{
1000
REACTOR
1002
}
1001
GENIUS_GENOBJ-N-REC_13
1002
{
1000
OWNER
1000
GEN
1002
}
  0
MTEXT
  5
608
330
5B5
100
AcDbEntity
  8
RAHM2
100
AcDbMText
 10
-8.5
 20
48.80103540727964
 30
0.0
 40
2.5
 41
17.0
 71
     2
 72
     5
  1
検図
 73
     1
 44
1.0
1001
ACAD
1000
MTEXTBEGIN
1070
    73
1070
     1
1070
    44
1040
1.0
1070
    74
1070
     0
1000
MTEXTEND
  0
MTEXT
  5
609
330
5B5
100
AcDbEntity
  8
RAHM2
100
AcDbMText
 10
-8.5
 20
23.80103540727964
 30
0.0
 40
2.5
 41
17.0
 71
     2
 72
     5
  1
製図
 73
     1
 44
1.0
1001
ACAD
1000
MTEXTBEGIN
1070
    73
1070
     1
1070
    44
1040
1.0
1070
    74
1070
     0
1000
MTEXTEND
  0
ENDBLK
  5
60C
330
5B5
100
AcDbEntity
  8
0
100
AcDbBlockEnd
  0
BLOCK
  5
827
330
81E
100
AcDbEntity
  8
0
100
AcDbBlockBegin
  2
TK-A3
 70
     0
 10
0.0
 20
0.0
 30
0.0
  3
TK-A3
  1

  0
LWPOLYLINE
  5
81F
330
81E
100
AcDbEntity
  8
0
100
AcDbPolyline
 90
        4
 70
     1
 43
0.0
 10
0.0
 20
0.0
 10
403.0
 20
0.0
 10
403.0
 20
280.0
 10
0.0
 20
280.0000000000001
1001
GENIUS_GENREC_14
1002
{
1000
PYDIR
1011
0.0000000000000178
1021
280.0
1031
0.0
1002
}
1002
{
1000
PXDIR
1011
403.0
1021
0.0
1031
0.0
1002
}
1002
{
1000
PORI
1011
0.0
1021
0.0
1031
0.0
1002
}
1002
{
1000
PINS
1011
0.0
1021
0.0
1031
0.0
1002
}
1002
{
1000
PINS2
1011
403.0
1021
280.0
1031
0.0
1002
}
1002
{
1000
C
1070
     1
1002
}
1001
GENIUS_GENODEF_13
1002
{
1000
HIER
1070
     0
1002
}
1002
{
1000
MANEDIT
1070
     0
1002
}
1002
{
1000
NOSEL
1070
     0
1002
}
1002
{
1000
BEHIND
1070
     0
1002
}
1002
{
1000
OTHER
1070
     0
1002
}
1002
{
1000
REACTOR
1002
}
1001
GENIUS_GENOBJ-N-REC_13
1002
{
1000
OWNER
1000
GEN
1002
}
  0
TEXT
  5
820
330
81E
100
AcDbEntity
  8
0
 60
     1
100
AcDbText
 10
403.0
 20
280.0
 30
0.0
 40
2.5
  1
!GENTITLE-MAX
100
AcDbText
  0
TEXT
  5
821
330
81E
100
AcDbEntity
  8
0
 60
     1
100
AcDbText
 10
0.0
 20
0.0
 30
0.0
 40
2.5
  1
!GENTITLE-LL
100
AcDbText
  0
TEXT
  5
822
330
81E
100
AcDbEntity
  8
0
 60
     1
100
AcDbText
 10
403.0
 20
0.0
 30
0.0
 40
2.5
  1
!GENTITLE-INSERT
100
AcDbText
  0
LINE
  5
823
330
81E
100
AcDbEntity
  8
0
100
AcDbLine
 10
359.0
 20
275.0
 30
0.0
 11
403.0
 21
275.0
 31
0.0
  0
MTEXT
  5
824
330
81E
100
AcDbEntity
  8
0
100
AcDbMText
 10
402.3592953827349
 20
276.108542987227
 30
0.0
 40
2.5
 41
43.07840397728298
 71
     9
 72
     5
  1
(文書番号：TY-34)2008.02.08
 73
     1
 44
1.0
1001
ACAD
1000
MTEXTBEGIN
1070
    73
1070
     1
1070
    44
1040
1.0
1070
    74
1070
     0
1000
MTEXTEND
  0
LINE
  5
825
330
81E
100
AcDbEntity
  8
0
100
AcDbLine
 10
359.0
 20
280.0
 30
0.0
 11
359.0
 21
275.0
 31
0.0
  0
ENDBLK
  5
828
330
81E
100
AcDbEntity
  8
0
100
AcDbBlockEnd
  0
BLOCK
  5
886
330
82C
100
AcDbEntity
  8
0
100
AcDbBlockBegin
  2
TK-TITLE
 70
     2
 10
0.0
 20
0.0
 30
0.0
  3
TK-TITLE
  1

  0
ATTDEF
  5
82D
330
82C
100
AcDbEntity
  8
0
100
AcDbText
 10
-8.002309189545826
 20
1.705189434395036
 30
0.0
 40
2.5
  1

100
AcDbAttributeDefinition
  3
Rev.
  2
GEN-TITLE-NR2
 70
     0
  0
ATTDEF
  5
82E
330
82C
100
AcDbEntity
  8
0
100
AcDbText
 10
-84.14251901585329
 20
12.82790432564377
 30
0.0
 40
3.5
  1

100
AcDbAttributeDefinition
  3
品名
  2
GEN-TITLE-DES1
 70
     0
  0
LINE
  5
82F
330
82C
100
AcDbEntity
  8
0
100
AcDbLine
 10
0.0
 20
0.0
 30
0.0
 11
0.0
 21
50.0
 31
0.0
1001
GENIUS_GENREC_14
1002
{
1000
PYDIR
1011
-414.0
1021
291.0
1031
0.0
1002
}
1002
{
1000
PXDIR
1011
6.0
1021
-6.0
1031
0.0
1002
}
1002
{
1000
PORI
1011
-414.0
1021
-6.0
1031
0.0
1002
}
1002
{
1000
PINS
1011
-414.0
1021
-6.0
1031
0.0
1002
}
1002
{
1000
HVAL
1000
297
1002
}
1002
{
1000
H
1070
     2
1002
}
1002
{
1000
WVAL
1000
420
1002
}
1002
{
1000
W
1070
     2
1002
}
1002
{
1000
C
1070
     1
1002
}
1001
GENIUS_GENODEF_13
1002
{
1000
HIER
1070
     0
1002
}
1002
{
1000
MANEDIT
1070
     0
1002
}
1002
{
1000
NOSEL
1070
     0
1002
}
1002
{
1000
BEHIND
1070
     0
1002
}
1002
{
1000
OTHER
1070
     0
1002
}
1002
{
1000
REACTOR
1002
}
1001
GENIUS_GENOBJ-N-REC_13
1002
{
1000
OWNER
1000
GEN
1002
}
  0
ATTDEF
  5
830
330
82C
100
AcDbEntity
  8
0
100
AcDbText
 10
-84.0
 20
9.149999999999948
 30
0.0
 40
2.5
  1

100
AcDbAttributeDefinition
  3
サブタイトル
  2
GEN-TITLE-DES2
 70
     0
  0
ATTDEF
  5
831
330
82C
100
AcDbEntity
  8
0
100
AcDbText
 10
-84.0
 20
1.999999999999957
 30
0.0
 40
3.0
  1

100
AcDbAttributeDefinition
  3
図番
  2
GEN-TITLE-NR1
 70
     0
  0
LINE
  5
832
330
82C
100
AcDbEntity
  8
0
100
AcDbLine
 10
-96.0
 20
50.00000000000001
 30
0.0
 11
-96.0
 21
-0.0000000000000142
 31
0.0
1001
GENIUS_GENREC_14
1002
{
1000
PYDIR
1011
-96.0
1021
49.99999999999999
1031
0.0
1002
}
1002
{
1000
PXDIR
1011
88.0
1021
-0.0000000000000142
1031
0.0
1002
}
1002
{
1000
PORI
1011
-96.0
1021
-0.0000000000000142
1031
0.0
1002
}
1002
{
1000
PINS
1011
-12.5
1021
24.99999999999999
1031
0.0
1002
}
1002
{
1000
HVAL
1000
50
1002
}
1002
{
1000
H
1070
     2
1002
}
1002
{
1000
WVAL
1000
167
1002
}
1002
{
1000
W
1070
     2
1002
}
1002
{
1000
C
1070
     4
1002
}
1001
GENIUS_GENODEF_13
1002
{
1000
HIER
1070
     0
1002
}
1002
{
1000
MANEDIT
1070
     0
1002
}
1002
{
1000
NOSEL
1070
     0
1002
}
1002
{
1000
BEHIND
1070
     0
1002
}
1002
{
1000
REACTOR
1002
}
1001
GENIUS_GENOBJ-N-REC_13
1002
{
1000
OWNER
1000
GEN
1002
}
  0
LINE
  5
833
330
82C
100
AcDbEntity
  8
0
100
AcDbLine
 10
0.0
 20
50.0
 30
0.0
 11
-193.0000000000001
 21
50.00000000000002
 31
0.0
1001
GENIUS_GENREC_14
1002
{
1000
PYDIR
1011
-184.0
1021
50.0
1031
0.0
1002
}
1002
{
1000
PXDIR
1011
0.0
1021
0.0
1031
0.0
1002
}
1002
{
1000
PORI
1011
-184.0
1021
0.0
1031
0.0
1002
}
1002
{
1000
PINS
1011
-100.5
1021
25.0
1031
0.0
1002
}
1002
{
1000
HVAL
1000
50
1002
}
1002
{
1000
H
1070
     2
1002
}
1002
{
1000
WVAL
1000
167
1002
}
1002
{
1000
W
1070
     2
1002
}
1002
{
1000
C
1070
     4
1002
}
1001
GENIUS_GENODEF_13
1002
{
1000
HIER
1070
     0
1002
}
1002
{
1000
MANEDIT
1070
     0
1002
}
1002
{
1000
NOSEL
1070
     0
1002
}
1002
{
1000
BEHIND
1070
     0
1002
}
1002
{
1000
REACTOR
1002
}
1001
GENIUS_GENOBJ-N-REC_13
1002
{
1000
OWNER
1000
GEN
1002
}
  0
LINE
  5
834
330
82C
100
AcDbEntity
  8
0
100
AcDbLine
 10
-193.0000000000001
 20
0.0
 30
0.0
 11
0.0
 21
0.0
 31
0.0
1001
GENIUS_GENREC_14
1002
{
1000
PYDIR
1011
-184.0
1021
50.0
1031
0.0
1002
}
1002
{
1000
PXDIR
1011
0.0
1021
0.0
1031
0.0
1002
}
1002
{
1000
PORI
1011
-184.0
1021
0.0
1031
0.0
1002
}
1002
{
1000
PINS
1011
-100.5
1021
25.0
1031
0.0
1002
}
1002
{
1000
HVAL
1000
50
1002
}
1002
{
1000
H
1070
     2
1002
}
1002
{
1000
WVAL
1000
167
1002
}
1002
{
1000
W
1070
     2
1002
}
1002
{
1000
C
1070
     4
1002
}
1001
GENIUS_GENODEF_13
1002
{
1000
HIER
1070
     0
1002
}
1002
{
1000
MANEDIT
1070
     0
1002
}
1002
{
1000
NOSEL
1070
     0
1002
}
1002
{
1000
BEHIND
1070
     0
1002
}
1002
{
1000
REACTOR
1002
}
1001
GENIUS_GENOBJ-N-REC_13
1002
{
1000
OWNER
1000
GEN
1002
}
  0
TEXT
  5
835
330
82C
100
AcDbEntity
  8
RAHM2
100
AcDbText
 10
-91.92677669529663
 20
45.98333333333335
 30
0.0
 40
2.5
  1
5
 72
     1
 11
-91.0
 21
45.65000000000002
 31
0.0
100
AcDbText
 73
     1
  0
TEXT
  5
836
330
82C
100
AcDbEntity
  8
RAHM2
100
AcDbText
 10
-92.0
 20
40.98333333333335
 30
0.0
 40
2.5
  1
4
 72
     1
 11
-91.0
 21
40.65000000000002
 31
0.0
100
AcDbText
 73
     1
  0
TEXT
  5
837
330
82C
100
AcDbEntity
  8
RAHM2
100
AcDbText
 10
-91.92677669529663
 20
35.98333333333333
 30
0.0
 40
2.5
  1
3
 72
     1
 11
-91.0
 21
35.64999999999999
 31
0.0
100
AcDbText
 73
     1
  0
TEXT
  5
838
330
82C
100
AcDbEntity
  8
RAHM2
100
AcDbText
 10
-91.91833169291339
 20
30.98333333333335
 30
0.0
 40
2.5
  1
2
 72
     1
 11
-91.0
 21
30.65000000000002
 31
0.0
100
AcDbText
 73
     1
  0
TEXT
  5
839
330
82C
100
AcDbEntity
  8
RAHM2
100
AcDbText
 10
-91.81558635658019
 20
25.98333333333335
 30
0.0
 40
2.5
  1
1
 72
     1
 11
-91.19058635658019
 21
25.65000000000002
 31
0.0
100
AcDbText
 73
     1
  0
MTEXT
  5
83A
330
82C
100
AcDbEntity
  8
RAHM2
100
AcDbMText
 10
-22.27910888308327
 20
27.50000000000003
 30
0.0
 40
2.5
 41
20.0
 71
     5
 72
     5
  1
・  ・   
 73
     1
 44
1.0
1001
ACAD
1000
MTEXTBEGIN
1070
    73
1070
     1
1070
    44
1040
1.0
1070
    74
1070
     0
1000
MTEXTEND
  0
LINE
  5
83B
330
82C
100
AcDbEntity
  8
RAHM2
100
AcDbLine
 10
-96.0
 20
25.0
 30
0.0
 11
0.0000000000001137
 21
25.00000000000003
 31
0.0
  0
LINE
  5
83C
330
82C
100
AcDbEntity
  8
RAHM2
100
AcDbLine
 10
-93.42487113059645
 20
25.40000000000002
 30
0.0
 11
-88.57512886940355
 21
25.40000000000002
 31
0.0
  0
LINE
  5
83D
330
82C
100
AcDbEntity
  8
RAHM2
100
AcDbLine
 10
-88.57512886940355
 20
25.40000000000002
 30
0.0
 11
-91.0
 21
29.60000000000001
 31
0.0
  0
LINE
  5
83E
330
82C
100
AcDbEntity
  8
RAHM2
100
AcDbLine
 10
-91.0
 20
29.60000000000001
 30
0.0
 11
-93.42487113059645
 21
25.40000000000002
 31
0.0
  0
MTEXT
  5
83F
330
82C
100
AcDbEntity
  8
RAHM2
100
AcDbMText
 10
-22.27910888308327
 20
47.50000000000002
 30
0.0
 40
2.5
 41
20.0
 71
     5
 72
     5
  1
・  ・   
 73
     1
 44
1.0
1001
ACAD
1000
MTEXTBEGIN
1070
    73
1070
     1
1070
    44
1040
1.0
1070
    74
1070
     0
1000
MTEXTEND
  0
MTEXT
  5
840
330
82C
100
AcDbEntity
  8
RAHM2
100
AcDbMText
 10
-22.27910888308327
 20
37.50000000000003
 30
0.0
 40
2.5
 41
20.0
 71
     5
 72
     5
  1
・  ・   
 73
     1
 44
1.0
1001
ACAD
1000
MTEXTBEGIN
1070
    73
1070
     1
1070
    44
1040
1.0
1070
    74
1070
     0
1000
MTEXTEND
  0
MTEXT
  5
841
330
82C
100
AcDbEntity
  8
RAHM2
100
AcDbMText
 10
-22.27910888308327
 20
42.50000000000002
 30
0.0
 40
2.5
 41
20.0
 71
     5
 72
     5
  1
・  ・   
 73
     1
 44
1.0
1001
ACAD
1000
MTEXTBEGIN
1070
    73
1070
     1
1070
    44
1040
1.0
1070
    74
1070
     0
1000
MTEXTEND
  0
MTEXT
  5
842
330
82C
100
AcDbEntity
  8
RAHM2
100
AcDbMText
 10
-5.910409705344477
 20
22.49999999999997
 30
0.0
 40
2.5
 41
15.0
 71
     5
 72
     5
  1
担当
 73
     1
 44
1.0
1001
ACAD
1000
MTEXTBEGIN
1070
    73
1070
     1
1070
    44
1040
1.0
1070
    74
1070
     0
1000
MTEXTEND
  0
MTEXT
  5
843
330
82C
100
AcDbEntity
  8
RAHM2
100
AcDbMText
 10
-21.55893921569111
 20
22.49999999999997
 30
0.0
 40
2.5
 41
20.0
 71
     5
 72
     5
  1
年・月・日
 73
     1
 44
1.0
1001
ACAD
1000
MTEXTBEGIN
1070
    73
1070
     1
1070
    44
1040
1.0
1070
    74
1070
     0
1000
MTEXTEND
  0
MTEXT
  5
844
330
82C
100
AcDbEntity
  8
RAHM2
100
AcDbMText
 10
-22.27910888308327
 20
32.50000000000003
 30
0.0
 40
2.5
 41
20.0
 71
     5
 72
     5
  1
・  ・   
 73
     1
 44
1.0
1001
ACAD
1000
MTEXTBEGIN
1070
    73
1070
     1
1070
    44
1040
1.0
1070
    74
1070
     0
1000
MTEXTEND
  0
LINE
  5
845
330
82C
100
AcDbEntity
  8
RAHM2
100
AcDbLine
 10
-11.82081941068907
 20
50.00000000000003
 30
0.0
 11
-11.82081941068907
 21
19.99999999999994
 31
0.0
  0
MTEXT
  5
846
330
82C
100
AcDbEntity
  8
RAHM2
100
AcDbMText
 10
-59.0
 20
22.49999999999996
 30
0.0
 40
2.5
 41
45.0
 71
     5
 72
     5
  1
変更記事
 73
     1
 44
1.0
1001
ACAD
1000
MTEXTBEGIN
1070
    73
1070
     1
1070
    44
1040
1.0
1070
    74
1070
     0
1000
MTEXTEND
  0
LINE
  5
847
330
82C
100
AcDbEntity
  8
RAHM2
100
AcDbLine
 10
-31.82081941068907
 20
50.00000000000003
 30
0.0
 11
-31.82081941068918
 21
19.99999999999994
 31
0.0
  0
LINE
  5
848
330
82C
100
AcDbEntity
  8
RAHM2
100
AcDbLine
 10
-91.0
 20
49.6
 30
0.0
 11
-93.42487113059645
 21
45.40000000000001
 31
0.0
  0
LINE
  5
849
330
82C
100
AcDbEntity
  8
RAHM2
100
AcDbLine
 10
-91.0
 20
44.6
 30
0.0
 11
-93.42487113059645
 21
40.40000000000001
 31
0.0
  0
LINE
  5
84A
330
82C
100
AcDbEntity
  8
RAHM2
100
AcDbLine
 10
-91.0
 20
39.60000000000001
 30
0.0
 11
-93.42487113059645
 21
35.40000000000002
 31
0.0
  0
LINE
  5
84B
330
82C
100
AcDbEntity
  8
RAHM2
100
AcDbLine
 10
-88.57512886940355
 20
35.40000000000002
 30
0.0
 11
-91.0
 21
39.60000000000001
 31
0.0
  0
LINE
  5
84C
330
82C
100
AcDbEntity
  8
RAHM2
100
AcDbLine
 10
-93.42487113059645
 20
35.40000000000002
 30
0.0
 11
-88.57512886940355
 21
35.40000000000002
 31
0.0
  0
LINE
  5
84D
330
82C
100
AcDbEntity
  8
RAHM2
100
AcDbLine
 10
-88.57512886940355
 20
40.40000000000001
 30
0.0
 11
-91.0
 21
44.6
 31
0.0
  0
LINE
  5
84E
330
82C
100
AcDbEntity
  8
RAHM2
100
AcDbLine
 10
-93.42487113059645
 20
40.40000000000001
 30
0.0
 11
-88.57512886940355
 21
40.40000000000001
 31
0.0
  0
LINE
  5
84F
330
82C
100
AcDbEntity
  8
RAHM2
100
AcDbLine
 10
-88.57512886940355
 20
45.40000000000001
 30
0.0
 11
-91.0
 21
49.6
 31
0.0
  0
LINE
  5
850
330
82C
100
AcDbEntity
  8
RAHM2
100
AcDbLine
 10
-93.42487113059645
 20
45.40000000000001
 30
0.0
 11
-88.57512886940355
 21
45.40000000000001
 31
0.0
  0
MTEXT
  5
851
330
82C
100
AcDbEntity
  8
RAHM2
100
AcDbMText
 10
-94.80025513713144
 20
18.8010354072796
 30
0.0
 40
2.5
 41
90.0
 71
     1
 72
     5
  1
品名
 73
     1
 44
1.0
1001
ACAD
1000
MTEXTBEGIN
1070
    73
1070
     1
1070
    44
1040
1.0
1070
    74
1070
     0
1000
MTEXTEND
  0
MTEXT
  5
852
330
82C
100
AcDbEntity
  8
RAHM2
100
AcDbMText
 10
-91.0
 20
22.49999999999996
 30
0.0
 40
2.5
 41
10.0
 71
     5
 72
     5
  1
符号
 73
     1
 44
1.0
1001
ACAD
1000
MTEXTBEGIN
1070
    73
1070
     1
1070
    44
1040
1.0
1070
    74
1070
     0
1000
MTEXTEND
  0
LINE
  5
853
330
82C
100
AcDbEntity
  8
RAHM2
100
AcDbLine
 10
-93.42487113059645
 20
30.40000000000002
 30
0.0
 11
-88.57512886940355
 21
30.40000000000002
 31
0.0
  0
LINE
  5
854
330
82C
100
AcDbEntity
  8
RAHM2
100
AcDbLine
 10
-86.0
 20
50.00000000000001
 30
0.0
 11
-86.0
 21
19.99999999999993
 31
0.0
  0
LINE
  5
855
330
82C
100
AcDbEntity
  8
RAHM2
100
AcDbLine
 10
-91.0
 20
34.60000000000001
 30
0.0
 11
-93.42487113059645
 21
30.40000000000002
 31
0.0
  0
LINE
  5
856
330
82C
100
AcDbEntity
  8
RAHM2
100
AcDbLine
 10
-88.57512886940355
 20
30.40000000000002
 30
0.0
 11
-91.0
 21
34.60000000000001
 31
0.0
  0
MTEXT
  5
857
330
82C
100
AcDbEntity
  8
RAHM2
100
AcDbMText
 10
-94.80025513713144
 20
5.801035407279627
 30
0.0
 40
2.5
 41
90.0
 71
     1
 72
     5
  1
図番
 73
     1
 44
1.0
1001
ACAD
1000
MTEXTBEGIN
1070
    73
1070
     1
1070
    44
1040
1.0
1070
    74
1070
     0
1000
MTEXTEND
  0
LINE
  5
858
330
82C
100
AcDbEntity
  8
0
100
AcDbLine
 10
-96.0
 20
19.99999999999997
 30
0.0
 11
0.0000000000001137
 21
19.99999999999997
 31
0.0
  0
LINE
  5
859
330
82C
100
AcDbEntity
  8
0
100
AcDbLine
 10
-96.0
 20
7.0
 30
0.0
 11
0.0000000000001137
 21
7.0
 31
0.0
  0
LINE
  5
85A
330
82C
100
AcDbEntity
  8
RAHM2
100
AcDbLine
 10
-96.0
 20
45.00000000000002
 30
0.0
 11
0.0000000000001137
 21
45.00000000000002
 31
0.0
  0
LINE
  5
85B
330
82C
100
AcDbEntity
  8
RAHM2
100
AcDbLine
 10
-96.0
 20
39.99999999999993
 30
0.0
 11
0.0000000000001137
 21
40.00000000000002
 31
0.0
  0
LINE
  5
85C
330
82C
100
AcDbEntity
  8
RAHM2
100
AcDbLine
 10
-96.0
 20
35.00000000000003
 30
0.0
 11
0.0000000000001137
 21
35.00000000000003
 31
0.0
  0
LINE
  5
85D
330
82C
100
AcDbEntity
  8
RAHM2
100
AcDbLine
 10
-96.0
 20
29.99999999999992
 30
0.0
 11
0.0000000000001137
 21
30.00000000000003
 31
0.0
  0
LINE
  5
85E
330
82C
100
AcDbEntity
  8
0
100
AcDbLine
 10
-21.17541926625711
 20
0.0
 30
0.0
 11
-21.17541926625734
 21
7.0
 31
0.0
  0
MTEXT
  5
85F
330
82C
100
AcDbEntity
  8
RAHM2
100
AcDbMText
 10
-16.85742592933491
 20
3.434762466565985
 30
0.0
 40
2.5
 41
7.936478436748416
 71
     5
 72
     5
  1
Rev.
 73
     1
 44
1.0
1001
ACAD
1000
MTEXTBEGIN
1070
    73
1070
     1
1070
    44
1040
1.0
1070
    74
1070
     0
1000
MTEXTEND
  0
MTEXT
  5
860
330
82C
100
AcDbEntity
  8
RAHM2
100
AcDbMText
 10
-104.875
 20
18.80103540727957
 30
0.0
 40
2.5
 41
17.0
 71
     2
 72
     5
  1
製図
 73
     1
 44
1.0
1001
ACAD
1000
MTEXTBEGIN
1070
    73
1070
     1
1070
    44
1040
1.0
1070
    74
1070
     0
1000
MTEXTEND
  0
LINE
  5
861
330
82C
100
AcDbEntity
  8
0
100
AcDbLine
 10
-167.0
 20
19.99999999999993
 30
0.0
 11
-96.0
 21
19.99999999999993
 31
0.0
  0
LINE
  5
862
330
82C
100
AcDbEntity
  8
0
100
AcDbLine
 10
-113.75
 20
19.99999999999993
 30
0.0
 11
-113.75
 21
-0.0000000000000533
 31
0.0
  0
LINE
  5
863
330
82C
100
AcDbEntity
  8
0
100
AcDbLine
 10
-131.5000000000001
 20
19.99999999999993
 30
0.0
 11
-131.5000000000001
 21
-0.0000000000000533
 31
0.0
  0
MTEXT
  5
864
330
82C
100
AcDbEntity
  8
RAHM2
100
AcDbMText
 10
-122.6250000000001
 20
18.80103540727958
 30
0.0
 40
2.5
 41
17.0
 71
     2
 72
     5
  1
検図
 73
     1
 44
1.0
1001
ACAD
1000
MTEXTBEGIN
1070
    73
1070
     1
1070
    44
1040
1.0
1070
    74
1070
     0
1000
MTEXTEND
  0
LINE
  5
865
330
82C
100
AcDbEntity
  8
0
100
AcDbLine
 10
-167.0
 20
49.99999999999995
 30
0.0
 11
-167.0
 21
-0.0000000000000497
 31
0.0
  0
LINE
  5
866
330
82C
100
AcDbEntity
  8
0
100
AcDbLine
 10
-149.2500000000001
 20
19.99999999999993
 30
0.0
 11
-149.2500000000001
 21
-0.0000000000000462
 31
0.0
  0
MTEXT
  5
867
330
82C
100
AcDbEntity
  8
RAHM2
100
AcDbMText
 10
-140.3750000000001
 20
18.80103540727958
 30
0.0
 40
2.5
 41
17.0
 71
     2
 72
     5
  1
承認
 73
     1
 44
1.0
1001
ACAD
1000
MTEXTBEGIN
1070
    73
1070
     1
1070
    44
1040
1.0
1070
    74
1070
     0
1000
MTEXTEND
  0
MTEXT
  5
868
330
82C
100
AcDbEntity
  8
RAHM2
100
AcDbMText
 10
-158.1250000000001
 20
18.80103540727956
 30
0.0
 40
2.5
 41
17.0
 71
     2
 72
     5
  1
承認
 73
     1
 44
1.0
1001
ACAD
1000
MTEXTBEGIN
1070
    73
1070
     1
1070
    44
1040
1.0
1070
    74
1070
     0
1000
MTEXTEND
  0
LINE
  5
869
330
82C
100
AcDbEntity
  8
0
100
AcDbLine
 10
-167.0
 20
29.99999999999992
 30
0.0
 11
-96.0
 21
29.99999999999992
 31
0.0
  0
MTEXT
  5
86A
330
82C
100
AcDbEntity
  8
0
100
AcDbMText
 10
-131.5000000000001
 20
24.99999999999992
 30
0.0
 40
3.5
 41
60.0
 71
     5
 72
     5
  1
\fＭＳ ゴシック|b0|i0|c128|p49;株式会社タカチ電機工業
 73
     1
 44
1.0
1001
ACAD
1000
MTEXTBEGIN
1070
    73
1070
     1
1070
    44
1040
1.0
1070
    74
1070
     0
1000
MTEXTEND
  0
ATTDEF
  5
86B
330
82C
100
AcDbEntity
  8
0
100
AcDbText
 10
-148.9618675835291
 20
43.29999999999991
 30
0.0
 40
3.0
  1

100
AcDbAttributeDefinition
  3
材質
  2
GEN-TITLE-MAT1
 70
     0
  0
ATTDEF
  5
86C
330
82C
100
AcDbEntity
  8
0
100
AcDbText
 10
-148.9618675835291
 20
33.29999999999991
 30
0.0
 40
3.0
  1

100
AcDbAttributeDefinition
  3
表面処理
  2
GEN-TITLE-MAT2
 70
     0
  0
MTEXT
  5
86D
330
82C
100
AcDbEntity
  8
RAHM2
100
AcDbMText
 10
-165.8002551371314
 20
48.80103540727955
 30
0.0
 40
2.5
 41
60.0
 71
     1
 72
     5
  1
材質
 73
     1
 44
1.0
1001
ACAD
1000
MTEXTBEGIN
1070
    73
1070
     1
1070
    44
1040
1.0
1070
    74
1070
     0
1000
MTEXTEND
  0
MTEXT
  5
86E
330
82C
100
AcDbEntity
  8
RAHM2
100
AcDbMText
 10
-165.8002551371314
 20
38.80103540727956
 30
0.0
 40
2.5
 41
60.0
 71
     1
 72
     5
  1
表面処理
 73
     1
 44
1.0
1001
ACAD
1000
MTEXTBEGIN
1070
    73
1070
     1
1070
    44
1040
1.0
1070
    74
1070
     0
1000
MTEXTEND
  0
LINE
  5
86F
330
82C
100
AcDbEntity
  8
0
100
AcDbLine
 10
-167.0
 20
39.99999999999991
 30
0.0
 11
-96.0
 21
39.99999999999992
 31
0.0
  0
LINE
  5
870
330
82C
100
AcDbEntity
  8
0
100
AcDbLine
 10
-167.0
 20
24.99999999999997
 30
0.0
 11
-193.0000000000001
 21
24.99999999999997
 31
0.0
  0
LINE
  5
871
330
82C
100
AcDbEntity
  8
0
100
AcDbLine
 10
-171.7167418745796
 20
46.74999999999995
 30
0.0
 11
-171.7167418745796
 21
40.74999999999994
 31
0.0
  0
LINE
  5
872
330
82C
100
AcDbEntity
  8
7A
100
AcDbLine
 10
-184.7167418745796
 20
43.74999999999995
 30
0.0
 11
-184.7167418745796
 21
40.03991724228473
 31
0.0
1001
GENIUS_GENOREF_13
1005
884
  0
LINE
  5
873
330
82C
100
AcDbEntity
  8
7A
100
AcDbLine
 10
-184.7167418745796
 20
43.74999999999995
 30
0.0
 11
-188.4397792458307
 21
43.74999999999995
 31
0.0
1001
GENIUS_GENOREF_13
1005
884
  0
LINE
  5
874
330
82C
100
AcDbEntity
  8
0
100
AcDbLine
 10
-179.7167418745796
 20
41.74999999999995
 30
0.0
 11
-179.7167418745796
 21
45.74999999999994
 31
0.0
  0
CIRCLE
  5
875
330
82C
100
AcDbEntity
  8
0
100
AcDbCircle
 10
-184.7167418745796
 20
43.74999999999995
 30
0.0
 40
3.0
  0
CIRCLE
  5
876
330
82C
100
AcDbEntity
  8
0
100
AcDbCircle
 10
-184.7167418745796
 20
43.74999999999995
 30
0.0
 40
2.0
  0
LINE
  5
877
330
82C
100
AcDbEntity
  8
7A
100
AcDbLine
 10
-184.7167418745796
 20
43.74999999999995
 30
0.0
 11
-184.7167418745796
 21
47.32478664473144
 31
0.0
1001
GENIUS_GENOREF_13
1005
884
  0
LINE
  5
878
330
82C
100
AcDbEntity
  8
0
100
AcDbLine
 10
-171.7167418745796
 20
40.74999999999994
 30
0.0
 11
-179.7167418745796
 21
41.74999999999995
 31
0.0
  0
LINE
  5
879
330
82C
100
AcDbEntity
  8
0
100
AcDbLine
 10
-179.7167418745796
 20
45.74999999999994
 30
0.0
 11
-171.7167418745796
 21
46.74999999999995
 31
0.0
  0
LINE
  5
87A
330
82C
100
AcDbEntity
  8
7A
100
AcDbLine
 10
-184.7167418745796
 20
43.74999999999995
 30
0.0
 11
-170.9354334742943
 21
43.74999999999995
 31
0.0
1001
GENIUS_GENOREF_13
1005
884
  0
LINE
  5
87B
330
82C
100
AcDbEntity
  8
0
100
AcDbLine
 10
-193.0000000000001
 20
49.99999999999999
 30
0.0
 11
-193.0000000000001
 21
-0.0000000000000142
 31
0.0
  0
ATTDEF
  5
87C
330
82C
100
AcDbEntity
  8
0
100
AcDbText
 10
-175.6127409126095
 20
16.19999999999994
 30
0.0
 40
3.0
  1

 72
     2
 11
-175.6127409126095
 21
15.79999999999994
 31
0.0
100
AcDbAttributeDefinition
  3
数量
  2
GEN-TITLE-QTY
 70
     0
 74
     1
  0
MTEXT
  5
87D
330
82C
100
AcDbEntity
  8
RAHM2
100
AcDbMText
 10
-191.8002551371315
 20
23.80103540727963
 30
0.0
 40
2.5
 41
20.0
 71
     1
 72
     5
  1
数量
 73
     1
 44
1.0
1001
ACAD
1000
MTEXTBEGIN
1070
    73
1070
     1
1070
    44
1040
1.0
1070
    74
1070
     0
1000
MTEXTEND
  0
MTEXT
  5
87E
330
82C
100
AcDbEntity
  8
RAHM2
100
AcDbMText
 10
-191.8002551371315
 20
36.30103540727966
 30
0.0
 40
2.5
 41
20.0
 71
     1
 72
     5
  1
尺度
 73
     1
 44
1.0
1001
ACAD
1000
MTEXTBEGIN
1070
    73
1070
     1
1070
    44
1040
1.0
1070
    74
1070
     0
1000
MTEXTEND
  0
ATTDEF
  5
87F
330
82C
100
AcDbEntity
  8
0
100
AcDbText
 10
-177.824739614424
 20
28.69999999999997
 30
0.0
 40
3.0
  1

 72
     2
 11
-177.824739614424
 21
28.29999999999998
 31
0.0
100
AcDbAttributeDefinition
  3
尺度
  2
GEN-TITLE-SCA
 70
     0
 74
     1
  0
MTEXT
  5
880
330
82C
100
AcDbEntity
  8
RAHM2
100
AcDbMText
 10
-191.8002551371315
 20
11.3010354072796
 30
0.0
 40
2.5
 41
60.0
 71
     1
 72
     5
  1
日付
 73
     1
 44
1.0
1001
ACAD
1000
MTEXTBEGIN
1070
    73
1070
     1
1070
    44
1040
1.0
1070
    74
1070
     0
1000
MTEXTEND
  0
ATTDEF
  5
881
330
82C
100
AcDbEntity
  8
0
100
AcDbText
 10
-180.2171951662138
 20
3.988342537610664
 30
0.0
 40
3.0
  1

 72
     1
 11
-180.2171951662138
 21
3.588342537610664
 31
0.0
100
AcDbAttributeDefinition
  3
日付
  2
GEN-TITLE-DAT
 70
     0
 74
     1
  0
LINE
  5
882
330
82C
100
AcDbEntity
  8
0
100
AcDbLine
 10
-167.0
 20
37.49999999999998
 30
0.0
 11
-193.0000000000001
 21
37.49999999999998
 31
0.0
  0
LINE
  5
883
330
82C
100
AcDbEntity
  8
0
100
AcDbLine
 10
-167.0
 20
12.49999999999996
 30
0.0
 11
-193.0000000000001
 21
12.49999999999996
 31
0.0
  0
POINT
  5
884
330
82C
100
AcDbEntity
  8
0
 60
     1
100
AcDbPoint
 10
-418.5355579819675
 20
-138.1104841268254
 30
0.0
1001
GENIUS_GENODEF_13
1002
{
1000
HIER
1070
    10
1002
}
1002
{
1000
MANEDIT
1070
     0
1002
}
1002
{
1000
NOSEL
1070
     0
1002
}
1002
{
1000
BEHIND
1070
     0
1002
}
1002
{
1000
REACTOR
1002
}
1001
GENIUS_GENOBJ-N-CRS_13
1002
{
1000
OWNER
1000
GEN
1002
}
1001
GENIUS_GENOENT_13
1002
{
1000
MYREF
1005
884
1002
}
1002
{
1000
GRP
1005
0
1002
}
1001
GENIUS_GENOLIS_13
1002
{
1000
ENT
1005
872
1005
873
1005
877
1005
87A
1002
}
  0
ENDBLK
  5
887
330
82C
100
AcDbEntity
  8
0
100
AcDbBlockEnd
  0
BLOCK
  5
F46
330
F2C
100
AcDbEntity
  8
0
100
AcDbBlockBegin
  2
*S8
 70
     1
 10
0.0
 20
0.0
 30
0.0
  3
*S8
  1

  0
MTEXT
  5
F2D
330
F2C
100
AcDbEntity
  8
0
 62
     2
100
AcDbMText
 10
323.25
 20
399.45
 30
0.0
 40
5.25
 41
19.8
 71
     2
 72
     5
  1
1
  7
ACISOTS
 73
     1
 44
1.0
1001
ACAD
1000
MTEXTBEGIN
1070
    73
1070
     1
1070
    44
1040
1.0
1070
    74
1070
     0
1000
MTEXTEND
  0
LINE
  5
F2E
330
F2C
100
AcDbEntity
  8
0
 62
     1
100
AcDbLine
 10
334.5
 20
401.475
 30
0.0
 11
334.5
 21
392.2125
 31
0.0
  0
MTEXT
  5
F2F
330
F2C
100
AcDbEntity
  8
0
 62
     2
100
AcDbMText
 10
335.85
 20
399.45
 30
0.0
 40
5.25
 41
72.30000000000001
 71
     1
 72
     5
  1
絶縁プレート
  7
ACISOTS
 73
     1
 44
1.0
1001
ACAD
1000
MTEXTBEGIN
1070
    73
1070
     1
1070
    44
1040
1.0
1070
    74
1070
     0
1000
MTEXTEND
  0
LINE
  5
F30
330
F2C
100
AcDbEntity
  8
0
 62
     1
100
AcDbLine
 10
409.4999999999999
 20
401.475
 30
0.0
 11
409.4999999999999
 21
392.2125
 31
0.0
  0
MTEXT
  5
F31
330
F2C
100
AcDbEntity
  8
0
 62
     2
100
AcDbMText
 10
420.75
 20
399.45
 30
0.0
 40
5.25
 41
19.8
 71
     2
 72
     5
  1
1
  7
ACISOTS
 73
     1
 44
1.0
1001
ACAD
1000
MTEXTBEGIN
1070
    73
1070
     1
1070
    44
1040
1.0
1070
    74
1070
     0
1000
MTEXTEND
  0
LINE
  5
F32
330
F2C
100
AcDbEntity
  8
0
 62
     1
100
AcDbLine
 10
432.0
 20
401.475
 30
0.0
 11
432.0
 21
392.2125
 31
0.0
  0
MTEXT
  5
F33
330
F2C
100
AcDbEntity
  8
0
 62
     2
100
AcDbMText
 10
433.3499999999999
 20
399.45
 30
0.0
 40
5.25
 41
79.80000000000001
 71
     1
 72
     5
  1
ABS
  7
ACISOTS
 73
     1
 44
1.0
1001
ACAD
1000
MTEXTBEGIN
1070
    73
1070
     1
1070
    44
1040
1.0
1070
    74
1070
     0
1000
MTEXTEND
  0
LINE
  5
F34
330
F2C
100
AcDbEntity
  8
0
 62
     1
100
AcDbLine
 10
514.5
 20
401.475
 30
0.0
 11
514.5
 21
392.2125
 31
0.0
  0
MTEXT
  5
F35
330
F2C
100
AcDbEntity
  8
0
 62
     2
100
AcDbMText
 10
515.85
 20
399.45
 30
0.0
 40
5.25
 41
87.30000000000002
 71
     1
 72
     5
  1
アイボリー
  7
ACISOTS
 73
     1
 44
1.0
1001
ACAD
1000
MTEXTBEGIN
1070
    73
1070
     1
1070
    44
1040
1.0
1070
    74
1070
     0
1000
MTEXTEND
  0
LINE
  5
F36
330
F2C
100
AcDbEntity
  8
0
 62
     1
100
AcDbLine
 10
312.0
 20
401.475
 30
0.0
 11
604.4999999999999
 21
401.475
 31
0.0
  0
MTEXT
  5
F37
330
F2C
100
AcDbEntity
  8
0
 62
     2
100
AcDbMText
 10
323.25
 20
408.7124999999999
 30
0.0
 40
5.25
 41
19.8
 71
     2
 72
     5
  1
照番
  7
ACISOTS
 73
     1
 44
1.0
1001
ACAD
1000
MTEXTBEGIN
1070
    73
1070
     1
1070
    44
1040
1.0
1070
    74
1070
     0
1000
MTEXTEND
  0
LINE
  5
F38
330
F2C
100
AcDbEntity
  8
0
 62
     1
100
AcDbLine
 10
334.5
 20
410.7375
 30
0.0
 11
334.5
 21
401.475
 31
0.0
  0
MTEXT
  5
F39
330
F2C
100
AcDbEntity
  8
0
 62
     2
100
AcDbMText
 10
372.0
 20
408.7124999999999
 30
0.0
 40
5.25
 41
72.30000000000001
 71
     2
 72
     5
  1
名称
  7
ACISOTS
 73
     1
 44
1.0
1001
ACAD
1000
MTEXTBEGIN
1070
    73
1070
     1
1070
    44
1040
1.0
1070
    74
1070
     0
1000
MTEXTEND
  0
LINE
  5
F3A
330
F2C
100
AcDbEntity
  8
0
 62
     1
100
AcDbLine
 10
409.4999999999999
 20
410.7375
 30
0.0
 11
409.4999999999999
 21
401.475
 31
0.0
  0
MTEXT
  5
F3B
330
F2C
100
AcDbEntity
  8
0
 62
     2
100
AcDbMText
 10
420.75
 20
408.7124999999999
 30
0.0
 40
5.25
 41
19.8
 71
     2
 72
     5
  1
個数
  7
ACISOTS
 73
     1
 44
1.0
1001
ACAD
1000
MTEXTBEGIN
1070
    73
1070
     1
1070
    44
1040
1.0
1070
    74
1070
     0
1000
MTEXTEND
  0
LINE
  5
F3C
330
F2C
100
AcDbEntity
  8
0
 62
     1
100
AcDbLine
 10
432.0
 20
410.7375
 30
0.0
 11
432.0
 21
401.475
 31
0.0
  0
MTEXT
  5
F3D
330
F2C
100
AcDbEntity
  8
0
 62
     2
100
AcDbMText
 10
473.2499999999999
 20
408.7124999999999
 30
0.0
 40
5.25
 41
79.80000000000001
 71
     2
 72
     5
  1
材質
  7
ACISOTS
 73
     1
 44
1.0
1001
ACAD
1000
MTEXTBEGIN
1070
    73
1070
     1
1070
    44
1040
1.0
1070
    74
1070
     0
1000
MTEXTEND
  0
LINE
  5
F3E
330
F2C
100
AcDbEntity
  8
0
 62
     1
100
AcDbLine
 10
514.5
 20
410.7375
 30
0.0
 11
514.5
 21
401.475
 31
0.0
  0
MTEXT
  5
F3F
330
F2C
100
AcDbEntity
  8
0
 62
     2
100
AcDbMText
 10
559.4999999999999
 20
408.7124999999999
 30
0.0
 40
5.25
 41
87.30000000000002
 71
     2
 72
     5
  1
色・表面処理
  7
ACISOTS
 73
     1
 44
1.0
1001
ACAD
1000
MTEXTBEGIN
1070
    73
1070
     1
1070
    44
1040
1.0
1070
    74
1070
     0
1000
MTEXTEND
  0
MTEXT
  5
F40
330
F2C
100
AcDbEntity
  8
0
 62
     2
100
AcDbMText
 10
458.25
 20
415.36875
 30
0.0
 40
5.25
 41
0.0
 71
     5
 72
     5
  1
構　成　内　容
  7
ACISOTS
 73
     1
 44
1.0
1001
ACAD
1000
MTEXTBEGIN
1070
    73
1070
     1
1070
    44
1040
1.0
1070
    74
1070
     0
1000
MTEXTEND
  0
LINE
  5
F41
330
F2C
100
AcDbEntity
  8
0
 62
     1
100
AcDbLine
 10
312.0
 20
410.7375
 30
0.0
 11
604.4999999999999
 21
410.7375
 31
0.0
  0
LINE
  5
F42
330
F2C
100
AcDbEntity
  8
0
 62
     7
100
AcDbLine
 10
312.0
 20
420.0
 30
0.0
 11
604.4999999999999
 21
420.0
 31
0.0
  0
LINE
  5
F43
330
F2C
100
AcDbEntity
  8
0
 62
     7
100
AcDbLine
 10
604.4999999999999
 20
420.0
 30
0.0
 11
604.4999999999999
 21
392.2125
 31
0.0
  0
LINE
  5
F44
330
F2C
100
AcDbEntity
  8
0
 62
     7
100
AcDbLine
 10
604.4999999999999
 20
392.2125
 30
0.0
 11
312.0
 21
392.2125
 31
0.0
  0
LINE
  5
F45
330
F2C
100
AcDbEntity
  8
0
 62
     7
100
AcDbLine
 10
312.0
 20
392.2125
 30
0.0
 11
312.0
 21
420.0
 31
0.0
  0
ENDBLK
  5
F47
330
F2C
100
AcDbEntity
  8
0
100
AcDbBlockEnd
  0
BLOCK
  5
F4D
330
F49
100
AcDbEntity
  8
0
100
AcDbBlockBegin
  2
*S9
 70
     1
 10
0.0
 20
0.0
 30
0.0
  3
*S9
  1

  0
CIRCLE
  5
F4A
330
F49
100
AcDbEntity
  8
AM_12
 62
     4
100
AcDbCircle
 10
326.5824671486641
 20
279.8613119415869
 30
0.0
 40
1.75
  0
LINE
  5
F4B
330
F49
100
AcDbEntity
  8
AM_12
 62
     4
100
AcDbLine
 10
324.8324671486642
 20
278.1113119415869
 30
0.0
 11
328.3324671486641
 21
281.6113119415869
 31
0.0
  0
LINE
  5
F4C
330
F49
100
AcDbEntity
  8
AM_12
 62
     4
100
AcDbLine
 10
324.8324671486642
 20
281.6113119415869
 30
0.0
 11
328.3324671486641
 21
278.1113119415869
 31
0.0
  0
ENDBLK
  5
F4E
330
F49
100
AcDbEntity
  8
0
100
AcDbBlockEnd
  0
BLOCK
  5
F55
330
F50
100
AcDbEntity
  8
0
100
AcDbBlockBegin
  2
*S10
 70
     1
 10
0.0
 20
0.0
 30
0.0
  3
*S10
  1

  0
LINE
  5
F51
330
F50
100
AcDbEntity
  8
AM_5
100
AcDbLine
 10
342.9765574656084
 20
309.383991797075
 30
0.0
 11
329.131213545706
 21
284.451125859772
 31
0.0
  0
TRACE
  5
F52
330
F50
100
AcDbEntity
  8
AM_5
100
AcDbTrace
 10
328.5269530826115
 20
284.7866746871623
 30
0.0
 11
329.7354740088004
 21
284.1155770323817
 31
0.0
 12
326.5824671486641
 22
279.8613119415869
 32
0.0
 13
326.5824671486641
 23
279.8613119415869
 33
0.0
  0
MTEXT
  5
F53
330
F50
100
AcDbEntity
  8
AM_5
 62
     7
100
AcDbMText
 10
350.2586900285851
 20
322.4977458490325
 30
0.0
 40
7.5
 41
0.0
 71
     5
 72
     5
  1
1
  7
ACISOTS
 73
     1
 44
1.0
1001
ACAD
1000
MTEXTBEGIN
1070
    73
1070
     1
1070
    44
1040
1.0
1070
    74
1070
     0
1000
MTEXTEND
  0
CIRCLE
  5
F54
330
F50
100
AcDbEntity
  8
AM_5
 62
     3
100
AcDbCircle
 10
350.2586900285851
 20
322.4977458490325
 30
0.0
 40
15.0
  0
ENDBLK
  5
F56
330
F50
100
AcDbEntity
  8
0
100
AcDbBlockEnd
  0
ENDSEC
  0
SECTION
  2
ENTITIES
  0
INSERT
  5
659
330
1F
100
AcDbEntity
  8
AM_0
370
     0
100
AcDbBlockReference
  2
TK-A3
 10
0.0
 20
0.0
 30
0.0
 41
1.5
 42
1.5
 43
1.5
1001
GENIUS_GENOREF_13
1005
665
1001
GENIUS_GENOBJ-N-SDF_13
1002
{
1000
OWNER
1000
GEN
1002
}
1001
GENIUS_GENODEF_13
1002
{
1000
HIER
1070
     0
1002
}
1002
{
1000
MANEDIT
1070
     0
1002
}
1002
{
1000
NOSEL
1070
     0
1002
}
1002
{
1000
BEHIND
1070
     0
1002
}
1002
{
1000
OTHER
1070
     0
1002
}
1002
{
1000
REACTOR
1002
}
1001
GENIUS_GENSCREG_15
1040
1.5
1040
1.0
1011
0.0
1021
0.0
1031
0.0
1011
604.4999999999999
1021
420.0000000000001
1031
0.0
1070
     5
  0
INSERT
  5
65B
330
1F
100
AcDbEntity
  8
AM_0
370
     0
100
AcDbBlockReference
 66
     1
  2
TK-TITLE
 10
604.4999999999999
 20
0.0
 30
0.0
 41
1.5
 42
1.5
 43
1.5
1001
GENIUS_GENOREF_13
1005
665
  0
ATTRIB
  5
941
330
65B
100
AcDbEntity
  8
0
100
AcDbText
 10
592.4965362156813
 20
2.557784151592554
 30
0.0
 40
3.75
  1

100
AcDbAttribute
  2
GEN-TITLE-NR2
 70
     0
  0
ATTRIB
  5
942
330
65B
100
AcDbEntity
  8
0
100
AcDbText
 10
478.28622147622
 20
19.24185648846566
 30
0.0
 40
5.25
  1
IS-43
100
AcDbAttribute
  2
GEN-TITLE-DES1
 70
     0
  0
ATTRIB
  5
943
330
65B
100
AcDbEntity
  8
0
100
AcDbText
 10
478.5
 20
13.72499999999992
 30
0.0
 40
3.75
  1
IS型絶縁プレート
100
AcDbAttribute
  2
GEN-TITLE-DES2
 70
     0
  0
ATTRIB
  5
944
330
65B
100
AcDbEntity
  8
0
100
AcDbText
 10
478.5
 20
2.999999999999936
 30
0.0
 40
4.5
  1

100
AcDbAttribute
  2
GEN-TITLE-NR1
 70
     0
  0
ATTRIB
  5
945
330
65B
100
AcDbEntity
  8
0
100
AcDbText
 10
381.0571986247063
 20
64.94999999999987
 30
0.0
 40
4.5
  1

100
AcDbAttribute
  2
GEN-TITLE-MAT1
 70
     0
  0
ATTRIB
  5
946
330
65B
100
AcDbEntity
  8
0
100
AcDbText
 10
381.0571986247063
 20
49.94999999999986
 30
0.0
 40
4.5
  1

100
AcDbAttribute
  2
GEN-TITLE-MAT2
 70
     0
  0
ATTRIB
  5
947
330
65B
100
AcDbEntity
  8
0
100
AcDbText
 10
341.0808886310857
 20
24.29999999999991
 30
0.0
 40
4.5
  1

 72
     2
 11
341.0808886310857
 21
23.69999999999991
 31
0.0
100
AcDbAttribute
  2
GEN-TITLE-QTY
 70
     0
 74
     1
  0
ATTRIB
  5
948
330
65B
100
AcDbEntity
  8
0
100
AcDbText
 10
327.901494475296
 20
43.04999999999996
 30
0.0
 40
4.5
  1
1:1.5
 72
     2
 11
337.7628905783639
 21
42.44999999999996
 31
0.0
100
AcDbAttribute
  2
GEN-TITLE-SCA
 70
     0
 74
     1
  0
ATTRIB
  5
949
330
65B
100
AcDbEntity
  8
0
100
AcDbText
 10
320.2813430774508
 20
5.982513806415996
 30
0.0
 40
4.5
  1
2013/01/11
 72
     1
 11
334.1742072506792
 21
5.382513806415996
 31
0.0
100
AcDbAttribute
  2
GEN-TITLE-DAT
 70
     0
 74
     1
  0
SEQEND
  5
940
330
65B
100
AcDbEntity
  8
AM_0
370
     0
  0
POINT
  5
665
330
1F
100
AcDbEntity
  8
0
 60
     1
100
AcDbPoint
 10
0.0
 20
0.0
 30
0.0
1001
GENIUS_GENOBJ-N-TIT_13
1002
{
1000
OWNER
1000
GEN
1002
}
1001
GENIUS_GENODEF_13
1002
{
1000
HIER
1070
     1
1002
}
1002
{
1000
MANEDIT
1070
     0
1002
}
1002
{
1000
NOSEL
1070
     0
1002
}
1002
{
1000
BEHIND
1070
     0
1002
}
1002
{
1000
OTHER
1070
     0
1002
}
1002
{
1000
REACTOR
1002
}
1001
GENIUS_GENOENT_13
1002
{
1000
MYREF
1005
665
1002
}
1002
{
1000
GRP
1005
0
1002
}
1001
GENIUS_GENOLIS_13
1002
{
1000
ENT
1005
65B
1005
659
1005
93F
1002
}
1001
GENIUS_GENTITLE_13
1002
{
1000
BORDER
1000
TK-A3
1002
}
1002
{
1000
TITLE
1000
TK-TITLE
1002
}
1002
{
1000
SCALE
1000
1:1.5
1002
}
1002
{
1000
TITLESTD
1000
ISO
1002
}
1002
{
1000
HRA
1005
659
1002
}
1002
{
1000
HTIT
1005
65B
1002
}
1002
{
1000
GENIUSID
1005
665
1002
}
1002
{
1000
INVTXTID
1005
0
1002
}
1002
{
1000
UNCHG
1002
{
1000
GEN-TITLE-SIZ
1000
GEN-TITLE-SCA
1002
}
1002
}
  0
INSERT
  5
7A4
102
{ACAD_REACTORS
330
7A3
102
}
330
1F
100
AcDbEntity
  8
0
100
AcDbBlockReference
  2
*S8
 10
0.0
 20
0.0
 30
0.0
  0
INSERT
  5
7AC
102
{ACAD_REACTORS
330
7AB
102
}
330
1F
100
AcDbEntity
  8
AM_12
100
AcDbBlockReference
  2
*S9
 10
0.0
 20
0.0
 30
0.0
  0
INSERT
  5
7AF
102
{ACAD_REACTORS
330
7AE
102
}
330
1F
100
AcDbEntity
  8
AM_5
100
AcDbBlockReference
  2
*S10
 10
0.0
 20
0.0
 30
0.0
  0
LINE
  5
A8B
330
1F
100
AcDbEntity
  8
0
100
AcDbLine
 10
87.75
 20
280.8986362334128
 30
0.0
 11
516.75
 21
280.8986362334128
 31
0.0
  0
LINE
  5
A98
330
1F
100
AcDbEntity
  8
0
100
AcDbLine
 10
87.75
 20
272.8986362334127
 30
0.0
 11
179.38
 21
272.8986362334127
 31
0.0
  0
LINE
  5
AB0
330
1F
100
AcDbEntity
  8
0
100
AcDbLine
 10
516.75
 20
272.8986362334127
 30
0.0
 11
516.75
 21
280.8986362334128
 31
0.0
  0
LINE
  5
AB6
330
1F
100
AcDbEntity
  8
0
100
AcDbLine
 10
87.75
 20
280.8986362334128
 30
0.0
 11
87.75
 21
272.8986362334127
 31
0.0
  0
LINE
  5
ABD
330
1F
100
AcDbEntity
  8
0
100
AcDbLine
 10
51.72085882082502
 20
272.8986362334127
 30
0.0
 11
51.72085882082501
 21
275.7486362334127
 31
0.0
  0
LINE
  5
AC7
330
1F
100
AcDbEntity
  8
0
100
AcDbLine
 10
51.72085882082502
 20
280.8986362334128
 30
0.0
 11
54.72085882082502
 21
280.8986362334128
 31
0.0
  0
LINE
  5
ACD
330
1F
100
AcDbEntity
  8
0
100
AcDbLine
 10
51.72085882082502
 20
272.8986362334127
 30
0.0
 11
54.72085882082502
 21
272.8986362334127
 31
0.0
  0
LINE
  5
ADA
330
1F
100
AcDbEntity
  8
0
100
AcDbLine
 10
54.72085882082502
 20
272.8986362334127
 30
0.0
 11
54.72085882082502
 21
275.0986362334127
 31
0.0
  0
LINE
  5
AE4
330
1F
100
AcDbEntity
  8
0
100
AcDbLine
 10
53.72085882082501
 20
275.0986362334127
 30
0.0
 11
53.72085882082501
 21
278.6986362334127
 31
0.0
  0
LINE
  5
AEE
330
1F
100
AcDbEntity
  8
0
100
AcDbLine
 10
87.75
 20
278.6986362334127
 30
0.0
 11
516.75
 21
278.6986362334127
 31
0.0
  0
LINE
  5
AF4
330
1F
100
AcDbEntity
  8
0
100
AcDbLine
 10
87.75
 20
275.0986362334127
 30
0.0
 11
516.75
 21
275.0986362334127
 31
0.0
  0
LINE
  5
AFA
330
1F
100
AcDbEntity
  8
0
100
AcDbLine
 10
53.72085882082501
 20
278.6986362334127
 30
0.0
 11
54.72085882082502
 21
278.6986362334127
 31
0.0
  0
LINE
  5
B00
330
1F
100
AcDbEntity
  8
0
100
AcDbLine
 10
53.72085882082501
 20
275.0986362334127
 30
0.0
 11
54.72085882082502
 21
275.0986362334127
 31
0.0
  0
LINE
  5
B01
330
1F
100
AcDbEntity
  8
0
100
AcDbLine
 10
54.72085882082502
 20
278.6986362334127
 30
0.0
 11
54.72085882082502
 21
280.8986362334128
 31
0.0
  0
CIRCLE
  5
B25
330
1F
100
AcDbEntity
  8
0
100
AcDbCircle
 10
91.43
 20
276.8986362334127
 30
0.0
 40
1.800000000000011
  0
CIRCLE
  5
B26
330
1F
100
AcDbEntity
  8
0
100
AcDbCircle
 10
96.50999999999999
 20
276.8986362334127
 30
0.0
 40
1.800000000000011
  0
CIRCLE
  5
B27
330
1F
100
AcDbEntity
  8
0
100
AcDbCircle
 10
101.59
 20
276.8986362334127
 30
0.0
 40
1.800000000000011
  0
CIRCLE
  5
B28
330
1F
100
AcDbEntity
  8
0
100
AcDbCircle
 10
106.67
 20
276.8986362334127
 30
0.0
 40
1.800000000000011
  0
CIRCLE
  5
B29
330
1F
100
AcDbEntity
  8
0
100
AcDbCircle
 10
111.75
 20
276.8986362334127
 30
0.0
 40
1.800000000000011
  0
CIRCLE
  5
B2A
330
1F
100
AcDbEntity
  8
0
100
AcDbCircle
 10
116.83
 20
276.8986362334127
 30
0.0
 40
1.800000000000011
  0
CIRCLE
  5
B2B
330
1F
100
AcDbEntity
  8
0
100
AcDbCircle
 10
121.91
 20
276.8986362334127
 30
0.0
 40
1.800000000000011
  0
CIRCLE
  5
B2C
330
1F
100
AcDbEntity
  8
0
100
AcDbCircle
 10
126.99
 20
276.8986362334127
 30
0.0
 40
1.800000000000011
  0
CIRCLE
  5
B2D
330
1F
100
AcDbEntity
  8
0
100
AcDbCircle
 10
132.07
 20
276.8986362334127
 30
0.0
 40
1.800000000000011
  0
CIRCLE
  5
B2E
330
1F
100
AcDbEntity
  8
0
100
AcDbCircle
 10
137.1499999999999
 20
276.8986362334127
 30
0.0
 40
1.800000000000011
  0
CIRCLE
  5
B2F
330
1F
100
AcDbEntity
  8
0
100
AcDbCircle
 10
142.23
 20
276.8986362334127
 30
0.0
 40
1.800000000000011
  0
CIRCLE
  5
B30
330
1F
100
AcDbEntity
  8
0
100
AcDbCircle
 10
147.31
 20
276.8986362334127
 30
0.0
 40
1.800000000000011
  0
CIRCLE
  5
B31
330
1F
100
AcDbEntity
  8
0
100
AcDbCircle
 10
152.39
 20
276.8986362334127
 30
0.0
 40
1.800000000000011
  0
CIRCLE
  5
B32
330
1F
100
AcDbEntity
  8
0
100
AcDbCircle
 10
157.47
 20
276.8986362334127
 30
0.0
 40
1.800000000000011
  0
CIRCLE
  5
B33
330
1F
100
AcDbEntity
  8
0
100
AcDbCircle
 10
162.55
 20
276.8986362334127
 30
0.0
 40
1.800000000000011
  0
CIRCLE
  5
B34
330
1F
100
AcDbEntity
  8
0
100
AcDbCircle
 10
167.63
 20
276.8986362334127
 30
0.0
 40
1.800000000000011
  0
CIRCLE
  5
B35
330
1F
100
AcDbEntity
  8
0
100
AcDbCircle
 10
172.71
 20
276.8986362334127
 30
0.0
 40
1.800000000000011
  0
CIRCLE
  5
B36
330
1F
100
AcDbEntity
  8
0
100
AcDbCircle
 10
177.79
 20
276.8986362334127
 30
0.0
 40
1.800000000000011
  0
CIRCLE
  5
B37
330
1F
100
AcDbEntity
  8
0
100
AcDbCircle
 10
182.87
 20
276.8986362334127
 30
0.0
 40
1.800000000000011
  0
CIRCLE
  5
B38
330
1F
100
AcDbEntity
  8
0
100
AcDbCircle
 10
187.95
 20
276.8986362334127
 30
0.0
 40
1.800000000000011
  0
CIRCLE
  5
B39
330
1F
100
AcDbEntity
  8
0
100
AcDbCircle
 10
193.0299999999999
 20
276.8986362334127
 30
0.0
 40
1.800000000000011
  0
CIRCLE
  5
B3A
330
1F
100
AcDbEntity
  8
0
100
AcDbCircle
 10
198.11
 20
276.8986362334127
 30
0.0
 40
1.800000000000011
  0
CIRCLE
  5
B3B
330
1F
100
AcDbEntity
  8
0
100
AcDbCircle
 10
203.19
 20
276.8986362334127
 30
0.0
 40
1.800000000000011
  0
CIRCLE
  5
B3C
330
1F
100
AcDbEntity
  8
0
100
AcDbCircle
 10
208.27
 20
276.8986362334127
 30
0.0
 40
1.800000000000011
  0
CIRCLE
  5
B3D
330
1F
100
AcDbEntity
  8
0
100
AcDbCircle
 10
213.35
 20
276.8986362334127
 30
0.0
 40
1.800000000000011
  0
CIRCLE
  5
B3E
330
1F
100
AcDbEntity
  8
0
100
AcDbCircle
 10
218.43
 20
276.8986362334127
 30
0.0
 40
1.800000000000011
  0
CIRCLE
  5
B3F
330
1F
100
AcDbEntity
  8
0
100
AcDbCircle
 10
223.51
 20
276.8986362334127
 30
0.0
 40
1.800000000000011
  0
CIRCLE
  5
B40
330
1F
100
AcDbEntity
  8
0
100
AcDbCircle
 10
228.59
 20
276.8986362334127
 30
0.0
 40
1.800000000000011
  0
CIRCLE
  5
B41
330
1F
100
AcDbEntity
  8
0
100
AcDbCircle
 10
233.67
 20
276.8986362334127
 30
0.0
 40
1.800000000000011
  0
CIRCLE
  5
B42
330
1F
100
AcDbEntity
  8
0
100
AcDbCircle
 10
238.75
 20
276.8986362334127
 30
0.0
 40
1.800000000000011
  0
CIRCLE
  5
B43
330
1F
100
AcDbEntity
  8
0
100
AcDbCircle
 10
243.83
 20
276.8986362334127
 30
0.0
 40
1.800000000000011
  0
CIRCLE
  5
B44
330
1F
100
AcDbEntity
  8
0
100
AcDbCircle
 10
248.91
 20
276.8986362334127
 30
0.0
 40
1.800000000000011
  0
CIRCLE
  5
B45
330
1F
100
AcDbEntity
  8
0
100
AcDbCircle
 10
253.99
 20
276.8986362334127
 30
0.0
 40
1.800000000000011
  0
CIRCLE
  5
B46
330
1F
100
AcDbEntity
  8
0
100
AcDbCircle
 10
259.07
 20
276.8986362334127
 30
0.0
 40
1.800000000000011
  0
CIRCLE
  5
B47
330
1F
100
AcDbEntity
  8
0
100
AcDbCircle
 10
264.15
 20
276.8986362334127
 30
0.0
 40
1.800000000000011
  0
CIRCLE
  5
B48
330
1F
100
AcDbEntity
  8
0
100
AcDbCircle
 10
269.23
 20
276.8986362334127
 30
0.0
 40
1.800000000000011
  0
CIRCLE
  5
B49
330
1F
100
AcDbEntity
  8
0
100
AcDbCircle
 10
274.31
 20
276.8986362334127
 30
0.0
 40
1.800000000000011
  0
CIRCLE
  5
B4A
330
1F
100
AcDbEntity
  8
0
100
AcDbCircle
 10
279.39
 20
276.8986362334127
 30
0.0
 40
1.800000000000011
  0
CIRCLE
  5
B4B
330
1F
100
AcDbEntity
  8
0
100
AcDbCircle
 10
284.47
 20
276.8986362334127
 30
0.0
 40
1.800000000000011
  0
CIRCLE
  5
B4C
330
1F
100
AcDbEntity
  8
0
100
AcDbCircle
 10
289.55
 20
276.8986362334127
 30
0.0
 40
1.800000000000011
  0
CIRCLE
  5
B4D
330
1F
100
AcDbEntity
  8
0
100
AcDbCircle
 10
294.63
 20
276.8986362334127
 30
0.0
 40
1.800000000000011
  0
CIRCLE
  5
B4E
330
1F
100
AcDbEntity
  8
0
100
AcDbCircle
 10
299.7100000000001
 20
276.8986362334127
 30
0.0
 40
1.800000000000011
  0
CIRCLE
  5
B4F
330
1F
100
AcDbEntity
  8
0
100
AcDbCircle
 10
304.79
 20
276.8986362334127
 30
0.0
 40
1.800000000000011
  0
CIRCLE
  5
B50
330
1F
100
AcDbEntity
  8
0
100
AcDbCircle
 10
309.87
 20
276.8986362334127
 30
0.0
 40
1.800000000000011
  0
CIRCLE
  5
B51
330
1F
100
AcDbEntity
  8
0
100
AcDbCircle
 10
314.9500000000001
 20
276.8986362334127
 30
0.0
 40
1.800000000000011
  0
CIRCLE
  5
B52
330
1F
100
AcDbEntity
  8
0
100
AcDbCircle
 10
320.03
 20
276.8986362334127
 30
0.0
 40
1.800000000000011
  0
CIRCLE
  5
B53
330
1F
100
AcDbEntity
  8
0
100
AcDbCircle
 10
325.11
 20
276.8986362334127
 30
0.0
 40
1.800000000000011
  0
CIRCLE
  5
B54
330
1F
100
AcDbEntity
  8
0
100
AcDbCircle
 10
330.19
 20
276.8986362334127
 30
0.0
 40
1.800000000000011
  0
CIRCLE
  5
B55
330
1F
100
AcDbEntity
  8
0
100
AcDbCircle
 10
335.27
 20
276.8986362334127
 30
0.0
 40
1.800000000000011
  0
CIRCLE
  5
B56
330
1F
100
AcDbEntity
  8
0
100
AcDbCircle
 10
340.35
 20
276.8986362334127
 30
0.0
 40
1.800000000000011
  0
CIRCLE
  5
B57
330
1F
100
AcDbEntity
  8
0
100
AcDbCircle
 10
345.43
 20
276.8986362334127
 30
0.0
 40
1.800000000000011
  0
CIRCLE
  5
B58
330
1F
100
AcDbEntity
  8
0
100
AcDbCircle
 10
350.51
 20
276.8986362334127
 30
0.0
 40
1.800000000000011
  0
CIRCLE
  5
B59
330
1F
100
AcDbEntity
  8
0
100
AcDbCircle
 10
355.59
 20
276.8986362334127
 30
0.0
 40
1.800000000000011
  0
CIRCLE
  5
B5A
330
1F
100
AcDbEntity
  8
0
100
AcDbCircle
 10
360.67
 20
276.8986362334127
 30
0.0
 40
1.800000000000011
  0
CIRCLE
  5
B5B
330
1F
100
AcDbEntity
  8
0
100
AcDbCircle
 10
365.75
 20
276.8986362334127
 30
0.0
 40
1.800000000000011
  0
CIRCLE
  5
B5C
330
1F
100
AcDbEntity
  8
0
100
AcDbCircle
 10
370.83
 20
276.8986362334127
 30
0.0
 40
1.800000000000011
  0
CIRCLE
  5
B5D
330
1F
100
AcDbEntity
  8
0
100
AcDbCircle
 10
375.91
 20
276.8986362334127
 30
0.0
 40
1.800000000000011
  0
CIRCLE
  5
B5E
330
1F
100
AcDbEntity
  8
0
100
AcDbCircle
 10
380.99
 20
276.8986362334127
 30
0.0
 40
1.800000000000011
  0
CIRCLE
  5
B5F
330
1F
100
AcDbEntity
  8
0
100
AcDbCircle
 10
386.07
 20
276.8986362334127
 30
0.0
 40
1.800000000000011
  0
CIRCLE
  5
B60
330
1F
100
AcDbEntity
  8
0
100
AcDbCircle
 10
391.1500000000001
 20
276.8986362334127
 30
0.0
 40
1.800000000000011
  0
CIRCLE
  5
B61
330
1F
100
AcDbEntity
  8
0
100
AcDbCircle
 10
396.23
 20
276.8986362334127
 30
0.0
 40
1.800000000000011
  0
CIRCLE
  5
B62
330
1F
100
AcDbEntity
  8
0
100
AcDbCircle
 10
401.3099999999999
 20
276.8986362334127
 30
0.0
 40
1.800000000000011
  0
CIRCLE
  5
B63
330
1F
100
AcDbEntity
  8
0
100
AcDbCircle
 10
406.39
 20
276.8986362334127
 30
0.0
 40
1.800000000000011
  0
CIRCLE
  5
B64
330
1F
100
AcDbEntity
  8
0
100
AcDbCircle
 10
411.47
 20
276.8986362334127
 30
0.0
 40
1.800000000000011
  0
CIRCLE
  5
B65
330
1F
100
AcDbEntity
  8
0
100
AcDbCircle
 10
416.5499999999999
 20
276.8986362334127
 30
0.0
 40
1.800000000000011
  0
CIRCLE
  5
B66
330
1F
100
AcDbEntity
  8
0
100
AcDbCircle
 10
421.63
 20
276.8986362334127
 30
0.0
 40
1.800000000000011
  0
CIRCLE
  5
B67
330
1F
100
AcDbEntity
  8
0
100
AcDbCircle
 10
426.71
 20
276.8986362334127
 30
0.0
 40
1.800000000000011
  0
CIRCLE
  5
B68
330
1F
100
AcDbEntity
  8
0
100
AcDbCircle
 10
431.79
 20
276.8986362334127
 30
0.0
 40
1.800000000000011
  0
CIRCLE
  5
B69
330
1F
100
AcDbEntity
  8
0
100
AcDbCircle
 10
436.87
 20
276.8986362334127
 30
0.0
 40
1.800000000000011
  0
CIRCLE
  5
B6A
330
1F
100
AcDbEntity
  8
0
100
AcDbCircle
 10
441.95
 20
276.8986362334127
 30
0.0
 40
1.800000000000011
  0
CIRCLE
  5
B6B
330
1F
100
AcDbEntity
  8
0
100
AcDbCircle
 10
447.03
 20
276.8986362334127
 30
0.0
 40
1.800000000000011
  0
CIRCLE
  5
B6C
330
1F
100
AcDbEntity
  8
0
100
AcDbCircle
 10
452.11
 20
276.8986362334127
 30
0.0
 40
1.800000000000011
  0
CIRCLE
  5
B6D
330
1F
100
AcDbEntity
  8
0
100
AcDbCircle
 10
457.19
 20
276.8986362334127
 30
0.0
 40
1.800000000000011
  0
CIRCLE
  5
B6E
330
1F
100
AcDbEntity
  8
0
100
AcDbCircle
 10
462.27
 20
276.8986362334127
 30
0.0
 40
1.800000000000011
  0
CIRCLE
  5
B6F
330
1F
100
AcDbEntity
  8
0
100
AcDbCircle
 10
467.35
 20
276.8986362334127
 30
0.0
 40
1.800000000000011
  0
CIRCLE
  5
B70
330
1F
100
AcDbEntity
  8
0
100
AcDbCircle
 10
472.43
 20
276.8986362334127
 30
0.0
 40
1.800000000000011
  0
CIRCLE
  5
B71
330
1F
100
AcDbEntity
  8
0
100
AcDbCircle
 10
477.51
 20
276.8986362334127
 30
0.0
 40
1.800000000000011
  0
CIRCLE
  5
B72
330
1F
100
AcDbEntity
  8
0
100
AcDbCircle
 10
482.59
 20
276.8986362334127
 30
0.0
 40
1.800000000000011
  0
CIRCLE
  5
B73
330
1F
100
AcDbEntity
  8
0
100
AcDbCircle
 10
487.67
 20
276.8986362334127
 30
0.0
 40
1.800000000000011
  0
CIRCLE
  5
B74
330
1F
100
AcDbEntity
  8
0
100
AcDbCircle
 10
492.75
 20
276.8986362334127
 30
0.0
 40
1.800000000000011
  0
CIRCLE
  5
B75
330
1F
100
AcDbEntity
  8
0
100
AcDbCircle
 10
497.8299999999999
 20
276.8986362334127
 30
0.0
 40
1.800000000000011
  0
CIRCLE
  5
B76
330
1F
100
AcDbEntity
  8
0
100
AcDbCircle
 10
502.91
 20
276.8986362334127
 30
0.0
 40
1.800000000000011
  0
CIRCLE
  5
B77
330
1F
100
AcDbEntity
  8
0
100
AcDbCircle
 10
507.99
 20
276.8986362334127
 30
0.0
 40
1.800000000000011
  0
CIRCLE
  5
B78
330
1F
100
AcDbEntity
  8
0
100
AcDbCircle
 10
513.0699999999999
 20
276.8986362334127
 30
0.0
 40
1.800000000000011
  0
LINE
  5
BD4
330
1F
100
AcDbEntity
  8
0
100
AcDbLine
 10
123.85
 20
278.6986362334127
 30
0.0
 11
123.85
 21
275.0986362334127
 31
0.0
  0
LINE
  5
BDA
330
1F
100
AcDbEntity
  8
0
100
AcDbLine
 10
125.05
 20
278.6986362334127
 30
0.0
 11
125.05
 21
275.0986362334127
 31
0.0
  0
LINE
  5
BE6
330
1F
100
AcDbEntity
  8
0
100
AcDbLine
 10
196.17
 20
278.6986362334127
 30
0.0
 11
196.17
 21
275.0986362334127
 31
0.0
  0
LINE
  5
BE7
330
1F
100
AcDbEntity
  8
0
100
AcDbLine
 10
194.97
 20
278.6986362334127
 30
0.0
 11
194.97
 21
275.0986362334127
 31
0.0
  0
LINE
  5
BE8
330
1F
100
AcDbEntity
  8
0
100
AcDbLine
 10
267.29
 20
278.6986362334127
 30
0.0
 11
267.29
 21
275.0986362334127
 31
0.0
  0
LINE
  5
BE9
330
1F
100
AcDbEntity
  8
0
100
AcDbLine
 10
266.09
 20
278.6986362334127
 30
0.0
 11
266.09
 21
275.0986362334127
 31
0.0
  0
LINE
  5
BEA
330
1F
100
AcDbEntity
  8
0
100
AcDbLine
 10
338.41
 20
278.6986362334127
 30
0.0
 11
338.41
 21
275.0986362334127
 31
0.0
  0
LINE
  5
BEB
330
1F
100
AcDbEntity
  8
0
100
AcDbLine
 10
337.21
 20
278.6986362334127
 30
0.0
 11
337.21
 21
275.0986362334127
 31
0.0
  0
LINE
  5
BEC
330
1F
100
AcDbEntity
  8
0
100
AcDbLine
 10
409.5299999999999
 20
278.6986362334127
 30
0.0
 11
409.5299999999999
 21
275.0986362334127
 31
0.0
  0
LINE
  5
BED
330
1F
100
AcDbEntity
  8
0
100
AcDbLine
 10
408.33
 20
278.6986362334127
 30
0.0
 11
408.33
 21
275.0986362334127
 31
0.0
  0
LINE
  5
BEE
330
1F
100
AcDbEntity
  8
0
100
AcDbLine
 10
480.65
 20
278.6986362334127
 30
0.0
 11
480.65
 21
275.0986362334127
 31
0.0
  0
LINE
  5
BEF
330
1F
100
AcDbEntity
  8
0
100
AcDbLine
 10
479.45
 20
278.6986362334127
 30
0.0
 11
479.45
 21
275.0986362334127
 31
0.0
  0
LINE
  5
C12
330
1F
100
AcDbEntity
  8
0
100
AcDbLine
 10
179.38
 20
273.3986362334127
 30
0.0
 11
179.38
 21
272.8986362334127
 31
0.0
  0
LINE
  5
C18
330
1F
100
AcDbEntity
  8
0
100
AcDbLine
 10
181.28
 20
273.3986362334127
 30
0.0
 11
181.28
 21
272.8986362334127
 31
0.0
  0
LINE
  5
C2A
330
1F
100
AcDbEntity
  8
0
100
AcDbLine
 10
179.38
 20
273.3986362334127
 30
0.0
 11
181.28
 21
273.3986362334127
 31
0.0
  0
LINE
  5
C2B
330
1F
100
AcDbEntity
  8
0
100
AcDbLine
 10
181.28
 20
272.8986362334127
 30
0.0
 11
260.66
 21
272.8986362334127
 31
0.0
  0
LINE
  5
C2C
330
1F
100
AcDbEntity
  8
0
100
AcDbLine
 10
260.66
 20
273.3986362334127
 30
0.0
 11
262.5599999999999
 21
273.3986362334127
 31
0.0
  0
LINE
  5
C2D
330
1F
100
AcDbEntity
  8
0
100
AcDbLine
 10
262.5599999999999
 20
273.3986362334127
 30
0.0
 11
262.5599999999999
 21
272.8986362334127
 31
0.0
  0
LINE
  5
C2E
330
1F
100
AcDbEntity
  8
0
100
AcDbLine
 10
260.66
 20
273.3986362334127
 30
0.0
 11
260.66
 21
272.8986362334127
 31
0.0
  0
LINE
  5
C2F
330
1F
100
AcDbEntity
  8
0
100
AcDbLine
 10
341.94
 20
273.3986362334127
 30
0.0
 11
343.8400000000001
 21
273.3986362334127
 31
0.0
  0
LINE
  5
C30
330
1F
100
AcDbEntity
  8
0
100
AcDbLine
 10
343.8400000000001
 20
273.3986362334127
 30
0.0
 11
343.8400000000001
 21
272.8986362334127
 31
0.0
  0
LINE
  5
C31
330
1F
100
AcDbEntity
  8
0
100
AcDbLine
 10
341.94
 20
273.3986362334127
 30
0.0
 11
341.94
 21
272.8986362334127
 31
0.0
  0
LINE
  5
C32
330
1F
100
AcDbEntity
  8
0
100
AcDbLine
 10
423.22
 20
273.3986362334127
 30
0.0
 11
425.1199999999999
 21
273.3986362334127
 31
0.0
  0
LINE
  5
C33
330
1F
100
AcDbEntity
  8
0
100
AcDbLine
 10
425.1199999999999
 20
273.3986362334127
 30
0.0
 11
425.1199999999999
 21
272.8986362334127
 31
0.0
  0
LINE
  5
C34
330
1F
100
AcDbEntity
  8
0
100
AcDbLine
 10
423.22
 20
273.3986362334127
 30
0.0
 11
423.22
 21
272.8986362334127
 31
0.0
  0
LINE
  5
C35
330
1F
100
AcDbEntity
  8
0
100
AcDbLine
 10
425.1199999999999
 20
272.8986362334127
 30
0.0
 11
516.75
 21
272.8986362334127
 31
0.0
  0
LINE
  5
C36
330
1F
100
AcDbEntity
  8
0
100
AcDbLine
 10
343.8400000000001
 20
272.8986362334127
 30
0.0
 11
423.22
 21
272.8986362334127
 31
0.0
  0
LINE
  5
C37
330
1F
100
AcDbEntity
  8
0
100
AcDbLine
 10
262.5599999999999
 20
272.8986362334127
 30
0.0
 11
341.9400000000001
 21
272.8986362334127
 31
0.0
  0
LINE
  5
C41
330
1F
100
AcDbEntity
  8
0
100
AcDbLine
 10
51.02085882082502
 20
278.0486362334127
 30
0.0
 11
52.720858820825
 21
278.0486362334127
 31
0.0
  0
LINE
  5
C47
330
1F
100
AcDbEntity
  8
0
100
AcDbLine
 10
51.02085882082502
 20
275.7486362334128
 30
0.0
 11
52.720858820825
 21
275.7486362334127
 31
0.0
  0
LINE
  5
C51
330
1F
100
AcDbEntity
  8
0
100
AcDbLine
 10
51.02085882082502
 20
275.7486362334128
 30
0.0
 11
51.02085882082502
 21
278.0486362334127
 31
0.0
  0
LINE
  5
C58
330
1F
100
AcDbEntity
  8
0
100
AcDbLine
 10
87.75
 20
228.3263690874579
 30
0.0
 11
516.75
 21
228.3263690874579
 31
0.0
  0
LINE
  5
C6D
330
1F
100
AcDbEntity
  8
0
100
AcDbLine
 10
87.75
 20
225.3263690874579
 30
0.0
 11
516.75
 21
225.3263690874579
 31
0.0
  0
LINE
  5
C74
330
1F
100
AcDbEntity
  8
0
100
AcDbLine
 10
87.75
 20
228.3263690874579
 30
0.0
 11
87.75
 21
224.6263690874579
 31
0.0
  0
LINE
  5
C7A
330
1F
100
AcDbEntity
  8
0
100
AcDbLine
 10
516.75
 20
228.3263690874579
 30
0.0
 11
516.75
 21
224.6263690874579
 31
0.0
  0
LINE
  5
C7E
330
1F
100
AcDbEntity
  8
0
100
AcDbLine
 10
87.75
 20
166.2448448587328
 30
0.0
 11
516.75
 21
166.2448448587328
 31
0.0
  0
LINE
  5
C80
330
1F
100
AcDbEntity
  8
0
100
AcDbLine
 10
87.75
 20
174.2448448587328
 30
0.0
 11
179.38
 21
174.2448448587328
 31
0.0
  0
LINE
  5
C81
330
1F
100
AcDbEntity
  8
0
100
AcDbLine
 10
181.28
 20
174.2448448587328
 30
0.0
 11
260.66
 21
174.2448448587328
 31
0.0
  0
LINE
  5
C82
330
1F
100
AcDbEntity
  8
0
100
AcDbLine
 10
262.5599999999999
 20
174.2448448587328
 30
0.0
 11
341.9400000000001
 21
174.2448448587327
 31
0.0
  0
LINE
  5
C83
330
1F
100
AcDbEntity
  8
0
100
AcDbLine
 10
343.8400000000001
 20
174.2448448587327
 30
0.0
 11
423.22
 21
174.2448448587328
 31
0.0
  0
LINE
  5
C84
330
1F
100
AcDbEntity
  8
0
100
AcDbLine
 10
425.1199999999999
 20
174.2448448587328
 30
0.0
 11
516.75
 21
174.2448448587328
 31
0.0
  0
LINE
  5
C85
330
1F
100
AcDbEntity
  8
0
100
AcDbLine
 10
179.38
 20
173.7448448587328
 30
0.0
 11
181.28
 21
173.7448448587328
 31
0.0
  0
LINE
  5
C87
330
1F
100
AcDbEntity
  8
0
100
AcDbLine
 10
87.75
 20
174.2448448587328
 30
0.0
 11
87.75
 21
166.2448448587328
 31
0.0
  0
LINE
  5
C88
330
1F
100
AcDbEntity
  8
0
100
AcDbLine
 10
516.75
 20
166.2448448587328
 30
0.0
 11
516.75
 21
174.2448448587328
 31
0.0
  0
CIRCLE
  5
C89
330
1F
100
AcDbEntity
  8
0
100
AcDbCircle
 10
91.43
 20
170.2448448587328
 30
0.0
 40
1.800000000000011
  0
CIRCLE
  5
C8A
330
1F
100
AcDbEntity
  8
0
100
AcDbCircle
 10
96.50999999999999
 20
170.2448448587328
 30
0.0
 40
1.800000000000011
  0
CIRCLE
  5
C8B
330
1F
100
AcDbEntity
  8
0
100
AcDbCircle
 10
101.59
 20
170.2448448587328
 30
0.0
 40
1.800000000000011
  0
CIRCLE
  5
C8C
330
1F
100
AcDbEntity
  8
0
100
AcDbCircle
 10
106.67
 20
170.2448448587328
 30
0.0
 40
1.800000000000011
  0
CIRCLE
  5
C8D
330
1F
100
AcDbEntity
  8
0
100
AcDbCircle
 10
111.75
 20
170.2448448587328
 30
0.0
 40
1.800000000000011
  0
CIRCLE
  5
C8E
330
1F
100
AcDbEntity
  8
0
100
AcDbCircle
 10
116.83
 20
170.2448448587328
 30
0.0
 40
1.800000000000011
  0
CIRCLE
  5
C8F
330
1F
100
AcDbEntity
  8
0
100
AcDbCircle
 10
121.91
 20
170.2448448587328
 30
0.0
 40
1.800000000000011
  0
CIRCLE
  5
C90
330
1F
100
AcDbEntity
  8
0
100
AcDbCircle
 10
126.99
 20
170.2448448587328
 30
0.0
 40
1.800000000000011
  0
CIRCLE
  5
C91
330
1F
100
AcDbEntity
  8
0
100
AcDbCircle
 10
132.07
 20
170.2448448587328
 30
0.0
 40
1.800000000000011
  0
CIRCLE
  5
C92
330
1F
100
AcDbEntity
  8
0
100
AcDbCircle
 10
137.1499999999999
 20
170.2448448587328
 30
0.0
 40
1.800000000000011
  0
CIRCLE
  5
C93
330
1F
100
AcDbEntity
  8
0
100
AcDbCircle
 10
142.23
 20
170.2448448587328
 30
0.0
 40
1.800000000000011
  0
CIRCLE
  5
C94
330
1F
100
AcDbEntity
  8
0
100
AcDbCircle
 10
147.31
 20
170.2448448587328
 30
0.0
 40
1.800000000000011
  0
CIRCLE
  5
C95
330
1F
100
AcDbEntity
  8
0
100
AcDbCircle
 10
152.39
 20
170.2448448587328
 30
0.0
 40
1.800000000000011
  0
CIRCLE
  5
C96
330
1F
100
AcDbEntity
  8
0
100
AcDbCircle
 10
157.47
 20
170.2448448587328
 30
0.0
 40
1.800000000000011
  0
CIRCLE
  5
C97
330
1F
100
AcDbEntity
  8
0
100
AcDbCircle
 10
162.55
 20
170.2448448587328
 30
0.0
 40
1.800000000000011
  0
CIRCLE
  5
C98
330
1F
100
AcDbEntity
  8
0
100
AcDbCircle
 10
167.63
 20
170.2448448587328
 30
0.0
 40
1.800000000000011
  0
CIRCLE
  5
C99
330
1F
100
AcDbEntity
  8
0
100
AcDbCircle
 10
172.71
 20
170.2448448587328
 30
0.0
 40
1.800000000000011
  0
CIRCLE
  5
C9A
330
1F
100
AcDbEntity
  8
0
100
AcDbCircle
 10
177.79
 20
170.2448448587328
 30
0.0
 40
1.800000000000011
  0
CIRCLE
  5
C9B
330
1F
100
AcDbEntity
  8
0
100
AcDbCircle
 10
182.87
 20
170.2448448587328
 30
0.0
 40
1.800000000000011
  0
CIRCLE
  5
C9C
330
1F
100
AcDbEntity
  8
0
100
AcDbCircle
 10
187.95
 20
170.2448448587328
 30
0.0
 40
1.800000000000011
  0
CIRCLE
  5
C9D
330
1F
100
AcDbEntity
  8
0
100
AcDbCircle
 10
193.0299999999999
 20
170.2448448587328
 30
0.0
 40
1.800000000000011
  0
CIRCLE
  5
C9E
330
1F
100
AcDbEntity
  8
0
100
AcDbCircle
 10
198.11
 20
170.2448448587328
 30
0.0
 40
1.800000000000011
  0
CIRCLE
  5
C9F
330
1F
100
AcDbEntity
  8
0
100
AcDbCircle
 10
203.19
 20
170.2448448587328
 30
0.0
 40
1.800000000000011
  0
CIRCLE
  5
CA0
330
1F
100
AcDbEntity
  8
0
100
AcDbCircle
 10
208.27
 20
170.2448448587328
 30
0.0
 40
1.800000000000011
  0
CIRCLE
  5
CA1
330
1F
100
AcDbEntity
  8
0
100
AcDbCircle
 10
213.35
 20
170.2448448587328
 30
0.0
 40
1.800000000000011
  0
CIRCLE
  5
CA2
330
1F
100
AcDbEntity
  8
0
100
AcDbCircle
 10
218.43
 20
170.2448448587328
 30
0.0
 40
1.800000000000011
  0
CIRCLE
  5
CA3
330
1F
100
AcDbEntity
  8
0
100
AcDbCircle
 10
223.51
 20
170.2448448587328
 30
0.0
 40
1.800000000000011
  0
CIRCLE
  5
CA4
330
1F
100
AcDbEntity
  8
0
100
AcDbCircle
 10
228.59
 20
170.2448448587328
 30
0.0
 40
1.800000000000011
  0
CIRCLE
  5
CA5
330
1F
100
AcDbEntity
  8
0
100
AcDbCircle
 10
233.67
 20
170.2448448587328
 30
0.0
 40
1.800000000000011
  0
CIRCLE
  5
CA6
330
1F
100
AcDbEntity
  8
0
100
AcDbCircle
 10
238.75
 20
170.2448448587328
 30
0.0
 40
1.800000000000011
  0
CIRCLE
  5
CA7
330
1F
100
AcDbEntity
  8
0
100
AcDbCircle
 10
243.83
 20
170.2448448587328
 30
0.0
 40
1.800000000000011
  0
CIRCLE
  5
CA8
330
1F
100
AcDbEntity
  8
0
100
AcDbCircle
 10
248.91
 20
170.2448448587328
 30
0.0
 40
1.800000000000011
  0
CIRCLE
  5
CA9
330
1F
100
AcDbEntity
  8
0
100
AcDbCircle
 10
253.99
 20
170.2448448587328
 30
0.0
 40
1.800000000000011
  0
CIRCLE
  5
CAA
330
1F
100
AcDbEntity
  8
0
100
AcDbCircle
 10
259.07
 20
170.2448448587328
 30
0.0
 40
1.800000000000011
  0
CIRCLE
  5
CAB
330
1F
100
AcDbEntity
  8
0
100
AcDbCircle
 10
264.15
 20
170.2448448587328
 30
0.0
 40
1.800000000000011
  0
CIRCLE
  5
CAC
330
1F
100
AcDbEntity
  8
0
100
AcDbCircle
 10
269.23
 20
170.2448448587328
 30
0.0
 40
1.800000000000011
  0
CIRCLE
  5
CAD
330
1F
100
AcDbEntity
  8
0
100
AcDbCircle
 10
274.31
 20
170.2448448587328
 30
0.0
 40
1.800000000000011
  0
CIRCLE
  5
CAE
330
1F
100
AcDbEntity
  8
0
100
AcDbCircle
 10
279.39
 20
170.2448448587328
 30
0.0
 40
1.800000000000011
  0
CIRCLE
  5
CAF
330
1F
100
AcDbEntity
  8
0
100
AcDbCircle
 10
284.47
 20
170.2448448587328
 30
0.0
 40
1.800000000000011
  0
CIRCLE
  5
CB0
330
1F
100
AcDbEntity
  8
0
100
AcDbCircle
 10
289.55
 20
170.2448448587328
 30
0.0
 40
1.800000000000011
  0
CIRCLE
  5
CB1
330
1F
100
AcDbEntity
  8
0
100
AcDbCircle
 10
294.63
 20
170.2448448587328
 30
0.0
 40
1.800000000000011
  0
CIRCLE
  5
CB2
330
1F
100
AcDbEntity
  8
0
100
AcDbCircle
 10
299.7100000000001
 20
170.2448448587328
 30
0.0
 40
1.800000000000011
  0
CIRCLE
  5
CB3
330
1F
100
AcDbEntity
  8
0
100
AcDbCircle
 10
304.79
 20
170.2448448587328
 30
0.0
 40
1.800000000000011
  0
CIRCLE
  5
CB4
330
1F
100
AcDbEntity
  8
0
100
AcDbCircle
 10
309.87
 20
170.2448448587328
 30
0.0
 40
1.800000000000011
  0
CIRCLE
  5
CB5
330
1F
100
AcDbEntity
  8
0
100
AcDbCircle
 10
314.9500000000001
 20
170.2448448587328
 30
0.0
 40
1.800000000000011
  0
CIRCLE
  5
CB6
330
1F
100
AcDbEntity
  8
0
100
AcDbCircle
 10
320.03
 20
170.2448448587328
 30
0.0
 40
1.800000000000011
  0
CIRCLE
  5
CB7
330
1F
100
AcDbEntity
  8
0
100
AcDbCircle
 10
325.11
 20
170.2448448587328
 30
0.0
 40
1.800000000000011
  0
CIRCLE
  5
CB8
330
1F
100
AcDbEntity
  8
0
100
AcDbCircle
 10
330.19
 20
170.2448448587328
 30
0.0
 40
1.800000000000011
  0
CIRCLE
  5
CB9
330
1F
100
AcDbEntity
  8
0
100
AcDbCircle
 10
335.27
 20
170.2448448587328
 30
0.0
 40
1.800000000000011
  0
CIRCLE
  5
CBA
330
1F
100
AcDbEntity
  8
0
100
AcDbCircle
 10
340.35
 20
170.2448448587328
 30
0.0
 40
1.800000000000011
  0
CIRCLE
  5
CBB
330
1F
100
AcDbEntity
  8
0
100
AcDbCircle
 10
345.43
 20
170.2448448587328
 30
0.0
 40
1.800000000000011
  0
CIRCLE
  5
CBC
330
1F
100
AcDbEntity
  8
0
100
AcDbCircle
 10
350.51
 20
170.2448448587328
 30
0.0
 40
1.800000000000011
  0
CIRCLE
  5
CBD
330
1F
100
AcDbEntity
  8
0
100
AcDbCircle
 10
355.59
 20
170.2448448587328
 30
0.0
 40
1.800000000000011
  0
CIRCLE
  5
CBE
330
1F
100
AcDbEntity
  8
0
100
AcDbCircle
 10
360.67
 20
170.2448448587328
 30
0.0
 40
1.800000000000011
  0
CIRCLE
  5
CBF
330
1F
100
AcDbEntity
  8
0
100
AcDbCircle
 10
365.75
 20
170.2448448587328
 30
0.0
 40
1.800000000000011
  0
CIRCLE
  5
CC0
330
1F
100
AcDbEntity
  8
0
100
AcDbCircle
 10
370.83
 20
170.2448448587328
 30
0.0
 40
1.800000000000011
  0
CIRCLE
  5
CC1
330
1F
100
AcDbEntity
  8
0
100
AcDbCircle
 10
375.91
 20
170.2448448587328
 30
0.0
 40
1.800000000000011
  0
CIRCLE
  5
CC2
330
1F
100
AcDbEntity
  8
0
100
AcDbCircle
 10
380.99
 20
170.2448448587328
 30
0.0
 40
1.800000000000011
  0
CIRCLE
  5
CC3
330
1F
100
AcDbEntity
  8
0
100
AcDbCircle
 10
386.07
 20
170.2448448587328
 30
0.0
 40
1.800000000000011
  0
CIRCLE
  5
CC4
330
1F
100
AcDbEntity
  8
0
100
AcDbCircle
 10
391.1500000000001
 20
170.2448448587328
 30
0.0
 40
1.800000000000011
  0
CIRCLE
  5
CC5
330
1F
100
AcDbEntity
  8
0
100
AcDbCircle
 10
396.23
 20
170.2448448587328
 30
0.0
 40
1.800000000000011
  0
CIRCLE
  5
CC6
330
1F
100
AcDbEntity
  8
0
100
AcDbCircle
 10
401.3099999999999
 20
170.2448448587328
 30
0.0
 40
1.800000000000011
  0
CIRCLE
  5
CC7
330
1F
100
AcDbEntity
  8
0
100
AcDbCircle
 10
406.39
 20
170.2448448587328
 30
0.0
 40
1.800000000000011
  0
CIRCLE
  5
CC8
330
1F
100
AcDbEntity
  8
0
100
AcDbCircle
 10
411.47
 20
170.2448448587328
 30
0.0
 40
1.800000000000011
  0
CIRCLE
  5
CC9
330
1F
100
AcDbEntity
  8
0
100
AcDbCircle
 10
416.5499999999999
 20
170.2448448587328
 30
0.0
 40
1.800000000000011
  0
CIRCLE
  5
CCA
330
1F
100
AcDbEntity
  8
0
100
AcDbCircle
 10
421.63
 20
170.2448448587328
 30
0.0
 40
1.800000000000011
  0
CIRCLE
  5
CCB
330
1F
100
AcDbEntity
  8
0
100
AcDbCircle
 10
426.71
 20
170.2448448587328
 30
0.0
 40
1.800000000000011
  0
CIRCLE
  5
CCC
330
1F
100
AcDbEntity
  8
0
100
AcDbCircle
 10
431.79
 20
170.2448448587328
 30
0.0
 40
1.800000000000011
  0
CIRCLE
  5
CCD
330
1F
100
AcDbEntity
  8
0
100
AcDbCircle
 10
436.87
 20
170.2448448587328
 30
0.0
 40
1.800000000000011
  0
CIRCLE
  5
CCE
330
1F
100
AcDbEntity
  8
0
100
AcDbCircle
 10
441.95
 20
170.2448448587328
 30
0.0
 40
1.800000000000011
  0
CIRCLE
  5
CCF
330
1F
100
AcDbEntity
  8
0
100
AcDbCircle
 10
447.03
 20
170.2448448587328
 30
0.0
 40
1.800000000000011
  0
CIRCLE
  5
CD0
330
1F
100
AcDbEntity
  8
0
100
AcDbCircle
 10
452.11
 20
170.2448448587328
 30
0.0
 40
1.800000000000011
  0
CIRCLE
  5
CD1
330
1F
100
AcDbEntity
  8
0
100
AcDbCircle
 10
457.19
 20
170.2448448587328
 30
0.0
 40
1.800000000000011
  0
CIRCLE
  5
CD2
330
1F
100
AcDbEntity
  8
0
100
AcDbCircle
 10
462.27
 20
170.2448448587328
 30
0.0
 40
1.800000000000011
  0
CIRCLE
  5
CD3
330
1F
100
AcDbEntity
  8
0
100
AcDbCircle
 10
467.35
 20
170.2448448587328
 30
0.0
 40
1.800000000000011
  0
CIRCLE
  5
CD4
330
1F
100
AcDbEntity
  8
0
100
AcDbCircle
 10
472.43
 20
170.2448448587328
 30
0.0
 40
1.800000000000011
  0
CIRCLE
  5
CD5
330
1F
100
AcDbEntity
  8
0
100
AcDbCircle
 10
477.51
 20
170.2448448587328
 30
0.0
 40
1.800000000000011
  0
CIRCLE
  5
CD6
330
1F
100
AcDbEntity
  8
0
100
AcDbCircle
 10
482.59
 20
170.2448448587328
 30
0.0
 40
1.800000000000011
  0
CIRCLE
  5
CD7
330
1F
100
AcDbEntity
  8
0
100
AcDbCircle
 10
487.67
 20
170.2448448587328
 30
0.0
 40
1.800000000000011
  0
CIRCLE
  5
CD8
330
1F
100
AcDbEntity
  8
0
100
AcDbCircle
 10
492.75
 20
170.2448448587328
 30
0.0
 40
1.800000000000011
  0
CIRCLE
  5
CD9
330
1F
100
AcDbEntity
  8
0
100
AcDbCircle
 10
497.8299999999999
 20
170.2448448587328
 30
0.0
 40
1.800000000000011
  0
CIRCLE
  5
CDA
330
1F
100
AcDbEntity
  8
0
100
AcDbCircle
 10
502.91
 20
170.2448448587328
 30
0.0
 40
1.800000000000011
  0
CIRCLE
  5
CDB
330
1F
100
AcDbEntity
  8
0
100
AcDbCircle
 10
507.99
 20
170.2448448587328
 30
0.0
 40
1.800000000000011
  0
CIRCLE
  5
CDC
330
1F
100
AcDbEntity
  8
0
100
AcDbCircle
 10
513.0699999999999
 20
170.2448448587328
 30
0.0
 40
1.800000000000011
  0
LINE
  5
CEB
330
1F
100
AcDbEntity
  8
AM_0
100
AcDbLine
 10
179.59
 20
170.2448448587328
 30
0.0
 11
181.07
 21
170.2448448587328
 31
0.0
  0
LINE
  5
CEC
330
1F
100
AcDbEntity
  8
0
100
AcDbLine
 10
181.28
 20
173.7448448587328
 30
0.0
 11
181.28
 21
174.2448448587328
 31
0.0
  0
LINE
  5
CED
330
1F
100
AcDbEntity
  8
0
100
AcDbLine
 10
179.38
 20
173.7448448587328
 30
0.0
 11
179.38
 21
174.2448448587328
 31
0.0
  0
LINE
  5
CEE
330
1F
100
AcDbEntity
  8
0
100
AcDbLine
 10
260.66
 20
173.7448448587328
 30
0.0
 11
262.5599999999999
 21
173.7448448587328
 31
0.0
  0
LINE
  5
CEF
330
1F
100
AcDbEntity
  8
0
100
AcDbLine
 10
262.5599999999999
 20
173.7448448587328
 30
0.0
 11
262.5599999999999
 21
174.2448448587328
 31
0.0
  0
LINE
  5
CF0
330
1F
100
AcDbEntity
  8
0
100
AcDbLine
 10
260.66
 20
173.7448448587328
 30
0.0
 11
260.66
 21
174.2448448587328
 31
0.0
  0
LINE
  5
CF1
330
1F
100
AcDbEntity
  8
0
100
AcDbLine
 10
341.94
 20
173.7448448587328
 30
0.0
 11
343.8400000000001
 21
173.7448448587328
 31
0.0
  0
LINE
  5
CF2
330
1F
100
AcDbEntity
  8
0
100
AcDbLine
 10
343.8400000000001
 20
173.7448448587328
 30
0.0
 11
343.8400000000001
 21
174.2448448587328
 31
0.0
  0
LINE
  5
CF3
330
1F
100
AcDbEntity
  8
0
100
AcDbLine
 10
341.94
 20
173.7448448587328
 30
0.0
 11
341.94
 21
174.2448448587328
 31
0.0
  0
LINE
  5
CF4
330
1F
100
AcDbEntity
  8
0
100
AcDbLine
 10
423.22
 20
173.7448448587328
 30
0.0
 11
425.1199999999999
 21
173.7448448587328
 31
0.0
  0
LINE
  5
CF5
330
1F
100
AcDbEntity
  8
0
100
AcDbLine
 10
425.1199999999999
 20
173.7448448587328
 30
0.0
 11
425.1199999999999
 21
174.2448448587328
 31
0.0
  0
LINE
  5
CF6
330
1F
100
AcDbEntity
  8
0
100
AcDbLine
 10
423.22
 20
173.7448448587328
 30
0.0
 11
423.22
 21
174.2448448587328
 31
0.0
  0
LINE
  5
CFE
330
1F
100
AcDbEntity
  8
0
100
AcDbLine
 10
179.38
 20
228.3263690874579
 30
0.0
 11
179.38
 21
225.3263690874579
 31
0.0
  0
LINE
  5
D0A
330
1F
100
AcDbEntity
  8
0
100
AcDbLine
 10
181.28
 20
228.3263690874579
 30
0.0
 11
181.28
 21
225.3263690874579
 31
0.0
  0
LINE
  5
D0E
330
1F
100
AcDbEntity
  8
0
100
AcDbLine
 10
260.66
 20
228.3263690874579
 30
0.0
 11
260.66
 21
225.3263690874579
 31
0.0
  0
LINE
  5
D0F
330
1F
100
AcDbEntity
  8
0
100
AcDbLine
 10
262.5599999999999
 20
228.3263690874579
 30
0.0
 11
262.5599999999999
 21
225.3263690874579
 31
0.0
  0
LINE
  5
D10
330
1F
100
AcDbEntity
  8
0
100
AcDbLine
 10
341.94
 20
228.3263690874579
 30
0.0
 11
341.94
 21
225.3263690874579
 31
0.0
  0
LINE
  5
D11
330
1F
100
AcDbEntity
  8
0
100
AcDbLine
 10
343.8400000000001
 20
228.3263690874579
 30
0.0
 11
343.8400000000001
 21
225.3263690874579
 31
0.0
  0
LINE
  5
D12
330
1F
100
AcDbEntity
  8
0
100
AcDbLine
 10
423.22
 20
228.3263690874579
 30
0.0
 11
423.22
 21
225.3263690874579
 31
0.0
  0
LINE
  5
D13
330
1F
100
AcDbEntity
  8
0
100
AcDbLine
 10
425.1199999999999
 20
228.3263690874579
 30
0.0
 11
425.1199999999999
 21
225.3263690874579
 31
0.0
  0
LINE
  5
D1D
330
1F
100
AcDbEntity
  8
0
100
AcDbLine
 10
87.75
 20
172.0448448587328
 30
0.0
 11
91.43
 21
172.0448448587328
 31
0.0
  0
LINE
  5
D23
330
1F
100
AcDbEntity
  8
0
100
AcDbLine
 10
87.75
 20
168.4448448587328
 30
0.0
 11
91.43
 21
168.4448448587328
 31
0.0
  0
LINE
  5
D65
330
1F
100
AcDbEntity
  8
0
100
AcDbLine
 10
87.75
 20
169.0948448587328
 30
0.0
 11
88.75
 21
169.0948448587328
 31
0.0
  0
LINE
  5
D6B
330
1F
100
AcDbEntity
  8
0
100
AcDbLine
 10
87.75
 20
171.3948448587328
 30
0.0
 11
88.75
 21
171.3948448587328
 31
0.0
  0
LINE
  5
D75
330
1F
100
AcDbEntity
  8
0
100
AcDbLine
 10
88.75
 20
171.3948448587328
 30
0.0
 11
88.75
 21
169.0948448587328
 31
0.0
  0
LINE
  5
D76
330
1F
100
AcDbEntity
  8
0
100
AcDbLine
 10
515.7499999999999
 20
171.3948448587328
 30
0.0
 11
515.7499999999999
 21
169.0948448587328
 31
0.0
  0
LINE
  5
D77
330
1F
100
AcDbEntity
  8
0
100
AcDbLine
 10
516.75
 20
171.3948448587328
 30
0.0
 11
515.7499999999999
 21
171.3948448587328
 31
0.0
  0
LINE
  5
D78
330
1F
100
AcDbEntity
  8
0
100
AcDbLine
 10
516.75
 20
169.0948448587328
 30
0.0
 11
515.7499999999999
 21
169.0948448587328
 31
0.0
  0
LINE
  5
D79
330
1F
100
AcDbEntity
  8
0
100
AcDbLine
 10
516.75
 20
172.0448448587328
 30
0.0
 11
513.07
 21
172.0448448587328
 31
0.0
  0
LINE
  5
D7A
330
1F
100
AcDbEntity
  8
0
100
AcDbLine
 10
516.75
 20
168.4448448587328
 30
0.0
 11
513.07
 21
168.4448448587328
 31
0.0
  0
LINE
  5
DD7
330
1F
100
AcDbEntity
  8
AM_0
100
AcDbLine
 10
312.1100000000001
 20
171.3948448587328
 30
0.0
 11
312.7100000000001
 21
171.3948448587328
 31
0.0
  0
LINE
  5
DDD
330
1F
100
AcDbEntity
  8
AM_0
100
AcDbLine
 10
312.1100000000001
 20
169.0948448587328
 30
0.0
 11
312.7100000000001
 21
169.0948448587328
 31
0.0
  0
LINE
  5
DE4
330
1F
100
AcDbEntity
  8
AM_0
100
AcDbLine
 10
312.7100000000001
 20
171.3948448587328
 30
0.0
 11
312.7100000000001
 21
169.0948448587328
 31
0.0
  0
LINE
  5
DEA
330
1F
100
AcDbEntity
  8
AM_0
100
AcDbLine
 10
312.1100000000001
 20
171.3948448587328
 30
0.0
 11
312.1100000000001
 21
169.0948448587328
 31
0.0
  0
LINE
  5
E01
330
1F
100
AcDbEntity
  8
0
100
AcDbLine
 10
314.9500000000001
 20
172.0448448587328
 30
0.0
 11
309.8700000000001
 21
172.0448448587328
 31
0.0
  0
LINE
  5
E07
330
1F
100
AcDbEntity
  8
0
100
AcDbLine
 10
314.9500000000001
 20
168.4448448587328
 30
0.0
 11
309.8700000000001
 21
168.4448448587328
 31
0.0
  0
LINE
  5
E4D
330
1F
100
AcDbEntity
  8
AM_0
100
AcDbLine
 10
291.7900000000001
 20
169.0948448587328
 30
0.0
 11
292.3900000000001
 21
169.0948448587328
 31
0.0
  0
LINE
  5
E4E
330
1F
100
AcDbEntity
  8
AM_0
100
AcDbLine
 10
291.7900000000001
 20
171.3948448587328
 30
0.0
 11
292.3900000000001
 21
171.3948448587328
 31
0.0
  0
LINE
  5
E4F
330
1F
100
AcDbEntity
  8
AM_0
100
AcDbLine
 10
292.3900000000001
 20
171.3948448587328
 30
0.0
 11
292.3900000000001
 21
169.0948448587328
 31
0.0
  0
LINE
  5
E50
330
1F
100
AcDbEntity
  8
AM_0
100
AcDbLine
 10
291.7900000000001
 20
171.3948448587328
 30
0.0
 11
291.7900000000001
 21
169.0948448587328
 31
0.0
  0
LINE
  5
E51
330
1F
100
AcDbEntity
  8
0
100
AcDbLine
 10
294.63
 20
168.4448448587328
 30
0.0
 11
289.5500000000001
 21
168.4448448587328
 31
0.0
  0
LINE
  5
E52
330
1F
100
AcDbEntity
  8
0
100
AcDbLine
 10
294.63
 20
172.0448448587328
 30
0.0
 11
289.5500000000001
 21
172.0448448587328
 31
0.0
  0
LINE
  5
E79
330
1F
100
AcDbEntity
  8
0
100
AcDbLine
 10
52.72085882082501
 20
278.6986362334127
 30
0.0
 11
51.72085882082502
 21
278.6986362334127
 31
0.0
  0
LINE
  5
E7F
330
1F
100
AcDbEntity
  8
0
100
AcDbLine
 10
52.72085882082501
 20
275.0986362334127
 30
0.0
 11
51.72085882082502
 21
275.0986362334127
 31
0.0
  0
LINE
  5
E96
330
1F
100
AcDbEntity
  8
0
100
AcDbLine
 10
52.72085882082501
 20
275.0986362334127
 30
0.0
 11
52.720858820825
 21
275.7486362334127
 31
0.0
  0
LINE
  5
E97
330
1F
100
AcDbEntity
  8
0
100
AcDbLine
 10
52.720858820825
 20
278.0486362334127
 30
0.0
 11
52.72085882082501
 21
278.6986362334127
 31
0.0
  0
LINE
  5
E98
330
1F
100
AcDbEntity
  8
0
100
AcDbLine
 10
51.72085882082501
 20
278.0486362334126
 30
0.0
 11
51.72085882082502
 21
280.8986362334128
 31
0.0
  0
LINE
  5
E9F
330
1F
100
AcDbEntity
  8
0
100
AcDbLine
 10
88.75
 20
224.6263690874579
 30
0.0
 11
88.75
 21
225.3263690874579
 31
0.0
  0
LINE
  5
EDA
330
1F
100
AcDbEntity
  8
0
100
AcDbLine
 10
87.75
 20
224.6263690874579
 30
0.0
 11
88.75
 21
224.6263690874579
 31
0.0
  0
LINE
  5
EDB
330
1F
100
AcDbEntity
  8
0
100
AcDbLine
 10
516.75
 20
224.6263690874579
 30
0.0
 11
515.7499999999999
 21
224.6263690874579
 31
0.0
  0
LINE
  5
EDC
330
1F
100
AcDbEntity
  8
0
100
AcDbLine
 10
515.7499999999999
 20
224.6263690874579
 30
0.0
 11
515.7499999999999
 21
225.3263690874579
 31
0.0
  0
LINE
  5
EE3
330
1F
100
AcDbEntity
  8
0
100
AcDbLine
 10
312.7100000000001
 20
224.6263690874579
 30
0.0
 11
312.1100000000001
 21
224.6263690874579
 31
0.0
  0
LINE
  5
EED
330
1F
100
AcDbEntity
  8
0
100
AcDbLine
 10
291.7900000000001
 20
224.6263690874579
 30
0.0
 11
291.7900000000001
 21
225.3263690874579
 31
0.0
  0
LINE
  5
EF3
330
1F
100
AcDbEntity
  8
0
100
AcDbLine
 10
292.3900000000001
 20
224.6263690874579
 30
0.0
 11
292.3900000000001
 21
225.3263690874579
 31
0.0
  0
LINE
  5
EF9
330
1F
100
AcDbEntity
  8
0
100
AcDbLine
 10
312.1100000000001
 20
225.3263690874579
 30
0.0
 11
312.1100000000001
 21
224.6263690874579
 31
0.0
  0
LINE
  5
EFF
330
1F
100
AcDbEntity
  8
0
100
AcDbLine
 10
312.7100000000001
 20
225.3263690874579
 30
0.0
 11
312.7100000000001
 21
224.6263690874579
 31
0.0
  0
LINE
  5
F03
330
1F
100
AcDbEntity
  8
0
100
AcDbLine
 10
292.3900000000001
 20
224.6263690874579
 30
0.0
 11
291.7900000000001
 21
224.6263690874579
 31
0.0
  0
VIEWPORT
  5
17C
102
{ACAD_XDICTIONARY
360
F64
102
}
330
23
100
AcDbEntity
 67
     1
  8
0
100
AcDbViewport
 10
133.3499908447265
 20
101.5999970436096
 30
0.0
 40
370.2266912936524
 41
228.4221935424805
 68
     1
 69
     1
 12
133.3499908447265
 22
101.5999970436096
 13
0.0
 23
0.0
 14
10.0
 24
10.0
 15
10.0
 25
10.0
 16
0.0
 26
0.0
 36
1.0
 17
0.0
 27
0.0
 37
0.0
 42
50.0
 43
0.0
 44
0.0
 45
228.4221935424805
 50
0.0
 51
0.0
 72
   100
 90
    32800
  1

281
     0
 71
     1
 74
     0
110
0.0
120
0.0
130
0.0
111
1.0
121
0.0
131
0.0
112
0.0
122
1.0
132
0.0
 79
     0
146
0.0
  0
ENDSEC
  0
SECTION
  2
OBJECTS
  0
DICTIONARY
  5
C
330
0
100
AcDbDictionary
281
     1
  3
ACAD_COLOR
350
BE
  3
ACAD_GROUP
350
D
  3
ACAD_LAYOUT
350
1A
  3
ACAD_MATERIAL
350
BD
  3
ACAD_MLINESTYLE
350
17
  3
ACAD_PLOTSETTINGS
350
19
  3
ACAD_PLOTSTYLENAME
350
E
  3
ACAD_TABLESTYLE
350
7EB
  3
ACDBHEADERROUNDTRIPXREC
350
F5B
  3
AcDbVariableDictionary
350
94
  3
AcmDictionary
350
5B
  3
AMG
350
41
  3
AMGSNAPSETTINGS
350
220
  3
DWGPROPS
350
F5A
  0
DICTIONARY
  5
35D
330
2
100
AcDbDictionary
280
     1
281
     1
  3
ACAD_LAYERFILTERS
360
451
  3
ACAD_LAYERSTATES
360
35E
  3
AMLAYER_GROUPCOLORS
360
4A4
  0
DICTIONARY
  5
8F
330
1F
100
AcDbDictionary
280
     1
281
     1
  3
ACAD_SORTENTS
360
8CD
  0
DICTIONARY
  5
5A6
330
59D
100
AcDbDictionary
280
     1
281
     1
  0
DICTIONARY
  5
60A
330
5B5
100
AcDbDictionary
280
     1
281
     1
  0
DICTIONARY
  5
826
330
81E
100
AcDbDictionary
280
     1
281
     1
  0
DICTIONARY
  5
885
330
82C
100
AcDbDictionary
280
     1
281
     1
  0
DICTIONARY
  5
F62
330
178
100
AcDbDictionary
280
     1
281
     1
  3
ACAD_XREC_ROUNDTRIP
360
F63
  0
DICTIONARY
  5
F64
330
17C
100
AcDbDictionary
280
     1
281
     1
  3
ACAD_XREC_ROUNDTRIP
360
F65
  0
DICTIONARY
  5
BE
102
{ACAD_REACTORS
330
C
102
}
330
C
100
AcDbDictionary
281
     1
  0
DICTIONARY
  5
D
102
{ACAD_REACTORS
330
C
102
}
330
C
100
AcDbDictionary
281
     1
  0
DICTIONARY
  5
1A
102
{ACAD_REACTORS
330
C
102
}
330
C
100
AcDbDictionary
281
     1
  3
Model
350
22
  3
レイアウト1
350
1E
  3
レイアウト2
350
26
  0
DICTIONARY
  5
BD
102
{ACAD_REACTORS
330
C
102
}
330
C
100
AcDbDictionary
281
     1
  0
DICTIONARY
  5
17
102
{ACAD_REACTORS
330
C
102
}
330
C
100
AcDbDictionary
281
     1
  3
Standard
350
18
  0
DICTIONARY
  5
19
102
{ACAD_REACTORS
330
C
102
}
330
C
100
AcDbDictionary
281
     1
  0
ACDBDICTIONARYWDFLT
  5
E
102
{ACAD_REACTORS
330
C
102
}
330
C
100
AcDbDictionary
281
     1
  3
Normal
350
F
100
AcDbDictionaryWithDefault
340
F
  0
DICTIONARY
  5
7EB
102
{ACAD_REACTORS
330
C
102
}
330
C
100
AcDbDictionary
281
     1
  3
Standard
350
7EC
  0
DICTIONARY
  5
F5B
102
{ACAD_REACTORS
330
C
102
}
330
C
100
AcDbDictionary
281
     1
  0
DICTIONARY
  5
94
102
{ACAD_REACTORS
330
C
102
}
330
C
100
AcDbDictionary
281
     1
  3
CTABLESTYLE
350
896
  3
DIMASSOC
350
96
  3
INDEXCTL
350
95
  3
PROJECTNAME
350
F58
  0
DICTIONARY
  5
5B
102
{ACAD_REACTORS
330
C
102
}
330
C
100
AcDbDictionary
281
     1
  3
AcmBOM
350
619
  3
AcmStdDictionary
350
61
  3
AMDTSECTSYM_ARROWCOLOR
350
807
  0
DICTIONARY
  5
41
102
{ACAD_REACTORS
330
C
102
}
330
C
100
AcDbDictionary
281
     1
  0
DICTIONARY
  5
220
102
{ACAD_REACTORS
330
C
102
}
330
C
100
AcDbDictionary
281
     1
  0
XRECORD
  5
F5A
102
{ACAD_REACTORS
330
C
102
}
330
C
100
AcDbXrecord
280
     1
  1
DWGPROPS COOKIE
  2

  3

  4

  6

  7

  8

  9

300
AmdtFileType=84
301
=
302
=
303
=
304
=
305
=
306
=
307
=
308
=
309
=
 40
0.1162536226851852
 41
2453707.637255498
 42
2456304.686570995
  1

 90
        1
  0
DICTIONARY
  5
451
102
{ACAD_REACTORS
330
35D
102
}
330
35D
100
AcDbDictionary
281
     1
  0
DICTIONARY
  5
35E
102
{ACAD_REACTORS
330
35D
102
}
330
35D
100
AcDbDictionary
281
     1
  3
takachi1
350
35F
  0
DICTIONARY
  5
4A4
102
{ACAD_REACTORS
330
35D
102
}
330
35D
100
AcDbDictionary
280
     1
281
     1
  0
SORTENTSTABLE
  5
8CD
102
{ACAD_REACTORS
330
8F
102
}
330
8F
100
AcDbSortentsTable
330
1F
331
CB8
  5
CBF
331
D0F
  5
D33
331
CC0
  5
CC7
331
C83
  5
C8A
331
C2C
  5
C36
331
A98
  5
A9F
331
CC8
  5
CCF
331
B3E
  5
B48
331
C8B
  5
C92
331
C34
  5
C7A
331
AB0
  5
B00
331
CD0
  5
CD7
331
B46
  5
B50
331
C93
  5
C9A
331
B4E
  5
B58
331
B56
  5
B60
331
C99
  5
CA0
331
CD8
  5
CE1
331
7A4
  5
7A4
331
CA1
  5
CA8
331
CF0
  5
CFE
331
7AC
  5
7AC
331
CA9
  5
CB0
331
B5E
  5
B68
331
BED
  5
C30
331
E4E
  5
E52
331
EED
  5
EF3
331
CB1
  5
CB8
331
B27
  5
B31
331
B66
  5
B70
331
C74
  5
C81
331
D77
  5
D8C
331
B2F
  5
B39
331
B6E
  5
B78
331
B37
  5
B41
331
B76
  5
BE9
331
CB9
  5
CC0
331
D10
  5
D6B
331
CC1
  5
CC8
331
C84
  5
C8B
331
C2D
  5
C37
331
DD7
  5
E07
331
E96
  5
B27
331
CC9
  5
CD0
331
B3F
  5
B49
331
C8C
  5
C93
331
C35
  5
ADA
331
CD1
  5
CD8
331
B47
  5
B51
331
C94
  5
C9B
331
B4F
  5
B59
331
B57
  5
B61
331
C9A
  5
CA1
331
CD9
  5
CEE
331
CA2
  5
CA9
331
B00
  5
B2E
331
BE6
  5
C12
331
E07
  5
E4F
331
CF1
  5
D0A
331
CAA
  5
CB1
331
B5F
  5
B69
331
C6D
  5
C80
331
BEE
  5
C31
331
E4F
  5
E59
331
CB2
  5
CB9
331
B28
  5
B32
331
B67
  5
B71
331
B30
  5
B3A
331
B6F
  5
B7F
331
B77
  5
BEB
331
D78
  5
D99
331
CBA
  5
CC1
331
E7F
  5
E9F
331
D11
  5
D75
331
CC2
  5
CC9
331
B38
  5
B42
331
C85
  5
C8C
331
C2E
  5
C41
331
E97
  5
B28
331
CCA
  5
CD1
331
B40
  5
B4A
331
C8D
  5
C94
331
C36
  5
ABD
331
E9F
  5
EB2
331
CD2
  5
CD9
331
B48
  5
B52
331
C95
  5
C9C
331
B50
  5
B5A
331
C9B
  5
CA2
331
CDA
  5
CEF
331
B58
  5
B62
331
CA3
  5
CAA
331
B01
  5
B25
331
BE7
  5
C18
331
CF2
  5
D0E
331
CAB
  5
CB2
331
B60
  5
B6A
331
BEF
  5
C32
331
B29
  5
B33
331
B68
  5
B72
331
E50
  5
E5F
331
CB3
  5
CBA
331
ADA
  5
B21
331
B31
  5
B3B
331
B70
  5
BC0
331
C7E
  5
C83
331
D79
  5
DE4
331
D0A
  5
D1D
331
CBB
  5
CC2
331
B39
  5
B43
331
B78
  5
BEC
331
EFF
  5
F03
331
D12
  5
D76
331
CC3
  5
CCA
331
A8B
  5
A8B
331
C2F
  5
C47
331
E98
  5
B0F
331
CCB
  5
CD2
331
B41
  5
B4B
331
C8E
  5
C95
331
C37
  5
AB6
331
B49
  5
B53
331
CD3
  5
CDA
331
AFA
  5
B2C
331
C47
  5
BEE
331
C96
  5
C9D
331
B51
  5
B5B
331
C9C
  5
CA3
331
CDB
  5
CF0
331
E01
  5
E50
331
CEB
  5
CF2
331
CA4
  5
CAB
331
B59
  5
B63
331
BE8
  5
C2A
331
CF3
  5
D0F
331
7AF
  5
7AF
331
CAC
  5
CB3
331
B61
  5
B6B
331
E51
  5
E69
331
CB4
  5
CBB
331
B2A
  5
B34
331
B69
  5
B73
331
C18
  5
C34
331
B32
  5
B3C
331
B71
  5
BD4
331
D7A
  5
DEA
331
E79
  5
E98
331
CBC
  5
CC3
331
D13
  5
D77
331
CC4
  5
CCB
331
B3A
  5
B44
331
C87
  5
C8D
331
C30
  5
C51
331
CCC
  5
CD3
331
B42
  5
B4C
331
C8F
  5
C96
331
CD4
  5
CDB
331
B4A
  5
B54
331
C97
  5
C9E
331
B52
  5
B5C
331
DEA
  5
E4E
331
D23
  5
C87
331
C9D
  5
CA4
331
CDC
  5
CF1
331
C58
  5
C7E
331
CEC
  5
CF3
331
CA5
  5
CAC
331
B5A
  5
B64
331
BE9
  5
C2B
331
D6B
  5
D78
331
CF4
  5
D10
331
CAD
  5
CB4
331
B62
  5
B6C
331
B2B
  5
B35
331
B6A
  5
B74
331
CB5
  5
CBC
331
E52
  5
E6F
331
B33
  5
B3D
331
B72
  5
BDA
331
AE4
  5
B26
331
659
  5
659
331
EF9
  5
EFF
331
CBD
  5
CC4
331
C80
  5
C85
331
CC5
  5
CCC
331
B3B
  5
B45
331
C88
  5
C8F
331
C31
  5
C58
331
B43
  5
B4D
331
CCD
  5
CD4
331
AF4
  5
AEE
331
C41
  5
BEF
331
C90
  5
C97
331
BDA
  5
BFA
331
CD5
  5
CDC
331
B4B
  5
B55
331
C51
  5
B19
331
B53
  5
B5D
331
ABD
  5
B01
331
EDA
  5
E97
331
C9E
  5
CA5
331
CED
  5
CF4
331
CA6
  5
CAD
331
B5B
  5
B65
331
BEA
  5
C2C
331
B63
  5
B6D
331
CF5
  5
D11
331
CAE
  5
CB5
331
ACD
  5
B2D
331
C12
  5
C35
331
CB6
  5
CBD
331
B2C
  5
B36
331
B6B
  5
B75
331
B34
  5
B3E
331
B73
  5
BE5
331
CBE
  5
CC5
331
C81
  5
C88
331
CC6
  5
CCD
331
B3C
  5
B46
331
C2A
  5
AE4
331
C89
  5
C90
331
D1D
  5
C84
331
CCE
  5
CD5
331
B44
  5
B4E
331
C32
  5
C6D
331
B4C
  5
B56
331
AB6
  5
AFA
331
CD6
  5
CDE
331
DE4
  5
E4D
331
C91
  5
C98
331
B54
  5
B5E
331
C9F
  5
CA6
331
EDB
  5
EDB
331
B5C
  5
B66
331
D65
  5
D79
331
CEE
  5
CF5
331
CA7
  5
CAE
331
EE3
  5
EE3
331
CF6
  5
D12
331
CAF
  5
CB6
331
B25
  5
B2F
331
B64
  5
B6E
331
BEB
  5
C2D
331
B2D
  5
B37
331
B6C
  5
B76
331
EF3
  5
EF9
331
CFE
  5
D13
331
CB7
  5
CBE
331
D75
  5
C8E
331
B35
  5
B3F
331
B74
  5
BE6
331
C7A
  5
C82
331
65B
  5
65B
331
D0E
  5
D23
331
CBF
  5
CC6
331
C82
  5
C89
331
B3D
  5
B47
331
AEE
  5
A98
331
C2B
  5
AB0
331
CC7
  5
CCE
331
F03
  5
EED
331
C8A
  5
C91
331
C33
  5
C74
331
B45
  5
B4F
331
CCF
  5
CD6
331
DDD
  5
E01
331
BD4
  5
C01
331
CD7
  5
CDF
331
B4D
  5
B57
331
C92
  5
C99
331
B55
  5
B5F
331
C98
  5
C9F
331
CA0
  5
CA7
331
EDC
  5
EDC
331
B5D
  5
B67
331
CEF
  5
CF6
331
CA8
  5
CAF
331
AC7
  5
B2B
331
B26
  5
B30
331
B65
  5
B6F
331
CB0
  5
CB7
331
E4D
  5
E51
331
BEC
  5
C2F
331
B2E
  5
B38
331
B6D
  5
B77
331
D76
  5
D7A
331
B36
  5
B40
331
B75
  5
BE8
  0
XRECORD
  5
F63
102
{ACAD_REACTORS
330
F62
102
}
330
F62
100
AcDbXrecord
280
     1
102
SHADEPLOT
 70
     0
  0
XRECORD
  5
F65
102
{ACAD_REACTORS
330
F64
102
}
330
F64
100
AcDbXrecord
280
     1
102
SHADEPLOT
 70
     0
  0
LAYOUT
  5
22
102
{ACAD_XDICTIONARY
360
F5E
102
}
102
{ACAD_REACTORS
330
1A
102
}
330
1A
100
AcDbPlotSettings
  1

  2
RICOH IPSiO CX7200 RPCS
  4
A3
  6
AM_VIEW1
 40
5.873749732971191
 41
5.873747825622558
 42
5.873748779296875
 43
5.873748779296875
 44
296.9259948730469
 45
419.9466552734374
 46
2.589999999999999
 47
4.099999999999999
 48
10.0
 49
0.0
140
410.0
141
280.0
142
1.0
143
1.0
 70
 11956
 72
     1
 73
     1
 74
     4
  7
takachi-1.ctb
 75
    16
147
1.0
148
-10.0
149
0.0
100
AcDbLayout
  1
Model
 70
     1
 71
     0
 10
0.0
 20
0.0
 11
12.0
 21
9.0
 12
0.0
 22
0.0
 32
0.0
 14
0.0
 24
0.0
 34
0.0
 15
0.0
 25
0.0
 35
0.0
146
0.0
 13
0.0
 23
0.0
 33
0.0
 16
1.0
 26
0.0
 36
0.0
 17
0.0
 27
1.0
 37
0.0
 76
     0
330
1F
  0
LAYOUT
  5
1E
102
{ACAD_XDICTIONARY
360
F5C
102
}
102
{ACAD_REACTORS
330
1A
102
}
330
1A
100
AcDbPlotSettings
  1

  2
none_device
  4
Letter_(8.50_x_11.00_Inches)
  6

 40
6.349999904632568
 41
6.349999904632568
 42
6.350006103515625
 43
6.350006103515625
 44
215.8999938964844
 45
279.3999938964844
 46
0.0
 47
0.0
 48
0.0
 49
0.0
140
0.0
141
0.0
142
1.0
143
1.0
 70
   688
 72
     1
 73
     1
 74
     5
  7
takachi-1.ctb
 75
    16
147
1.0
148
0.0
149
0.0
100
AcDbLayout
  1
レイアウト1
 70
     1
 71
     1
 10
-6.350006103515625
 20
-6.349999904632568
 11
273.0499877929688
 21
209.5499939918518
 12
0.0
 22
0.0
 32
0.0
 14
1.000000000000000E+20
 24
1.000000000000000E+20
 34
1.000000000000000E+20
 15
-1.000000000000000E+20
 25
-1.000000000000000E+20
 35
-1.000000000000000E+20
146
0.0
 13
0.0
 23
0.0
 33
0.0
 16
1.0
 26
0.0
 36
0.0
 17
0.0
 27
1.0
 37
0.0
 76
     0
330
1B
331
178
  0
LAYOUT
  5
26
102
{ACAD_XDICTIONARY
360
F60
102
}
102
{ACAD_REACTORS
330
1A
102
}
330
1A
100
AcDbPlotSettings
  1

  2
none_device
  4
Letter_(8.50_x_11.00_Inches)
  6

 40
6.349999904632568
 41
6.349999904632568
 42
6.350006103515625
 43
6.350006103515625
 44
215.8999938964844
 45
279.3999938964844
 46
0.0
 47
0.0
 48
0.0
 49
0.0
140
0.0
141
0.0
142
1.0
143
1.0
 70
   688
 72
     1
 73
     1
 74
     5
  7
takachi-1.ctb
 75
    16
147
1.0
148
0.0
149
0.0
100
AcDbLayout
  1
レイアウト2
 70
     1
 71
     2
 10
-6.350006103515625
 20
-6.349999904632568
 11
273.0499877929688
 21
209.5499939918518
 12
0.0
 22
0.0
 32
0.0
 14
1.000000000000000E+20
 24
1.000000000000000E+20
 34
1.000000000000000E+20
 15
-1.000000000000000E+20
 25
-1.000000000000000E+20
 35
-1.000000000000000E+20
146
0.0
 13
0.0
 23
0.0
 33
0.0
 16
1.0
 26
0.0
 36
0.0
 17
0.0
 27
1.0
 37
0.0
 76
     0
330
23
331
17C
  0
MLINESTYLE
  5
18
102
{ACAD_REACTORS
330
17
102
}
330
17
100
AcDbMlineStyle
  2
STANDARD
 70
     0
  3

 62
   256
 51
90.0
 52
90.0
 71
     2
 49
0.5
 62
   256
  6
BYLAYER
 49
-0.5
 62
   256
  6
BYLAYER
  0
ACDBPLACEHOLDER
  5
F
102
{ACAD_REACTORS
330
E
102
}
330
E
  0
TABLESTYLE
  5
7EC
102
{ACAD_REACTORS
330
7EB
102
}
330
7EB
100
AcDbTableStyle
  3
Standard
 70
     0
 71
     0
 40
1.5
 41
1.5
280
     0
281
     0
  7
STANDARD
140
4.5
170
     2
 62
     0
 63
     7
283
     0
274
    -2
284
     1
 64
     0
275
    -2
285
     1
 65
     0
276
    -2
286
     1
 66
     0
277
    -2
287
     1
 67
     0
278
    -2
288
     1
 68
     0
279
    -2
289
     1
 69
     0
  7
STANDARD
140
6.0
170
     5
 62
     0
 63
     7
283
     0
274
    -2
284
     1
 64
     0
275
    -2
285
     1
 65
     0
276
    -2
286
     1
 66
     0
277
    -2
287
     1
 67
     0
278
    -2
288
     1
 68
     0
279
    -2
289
     1
 69
     0
  7
STANDARD
140
4.5
170
     5
 62
     0
 63
     7
283
     0
274
    -2
284
     1
 64
     0
275
    -2
285
     1
 65
     0
276
    -2
286
     1
 66
     0
277
    -2
287
     1
 67
     0
278
    -2
288
     1
 68
     0
279
    -2
289
     1
 69
     0
  0
DICTIONARYVAR
  5
896
102
{ACAD_REACTORS
330
94
102
}
330
94
100
DictionaryVariables
280
     0
  1
STANDARD
  0
DICTIONARYVAR
  5
96
102
{ACAD_REACTORS
330
94
102
}
330
94
100
DictionaryVariables
280
     0
  1
2
  0
DICTIONARYVAR
  5
95
102
{ACAD_REACTORS
330
94
102
}
330
94
100
DictionaryVariables
280
     0
  1
0
  0
DICTIONARYVAR
  5
F58
102
{ACAD_REACTORS
330
94
102
}
330
94
100
DictionaryVariables
280
     0
  1

  0
DICTIONARY
  5
619
102
{ACAD_REACTORS
330
5B
102
}
330
5B
100
AcDbDictionary
281
     1
  0
DICTIONARY
  5
61
102
{ACAD_REACTORS
330
5B
102
}
330
5B
100
AcDbDictionary
281
     1
  0
XRECORD
  5
807
102
{ACAD_REACTORS
330
5B
102
}
330
5B
100
AcDbXrecord
280
     1
 90
-1023410169
  0
XRECORD
  5
35F
102
{ACAD_REACTORS
330
35E
102
}
330
35E
100
AcDbXrecord
280
     1
 91
       16
330
1E1
 90
        0
 62
     7
370
    -3
331
16
  1
色_7
330
10
 90
        8
 62
     7
370
    -3
331
16
  1
色_7
  0
DICTIONARY
  5
F5E
330
22
100
AcDbDictionary
280
     1
281
     1
  3
ACAD_XREC_ROUNDTRIP
360
F5F
  0
DICTIONARY
  5
F5C
330
1E
100
AcDbDictionary
280
     1
281
     1
  3
ACAD_XREC_ROUNDTRIP
360
F5D
  0
DICTIONARY
  5
F60
330
26
100
AcDbDictionary
280
     1
281
     1
  3
ACAD_XREC_ROUNDTRIP
360
F61
  0
XRECORD
  5
F5F
102
{ACAD_REACTORS
330
F5E
102
}
330
F5E
100
AcDbXrecord
280
     1
102
SHADEPLOT
 70
     0
102
SHADEPLOTRESLEVEL
 70
     2
102
SHADEPLOTCUSTOMDPI
 70
   300
  0
XRECORD
  5
F5D
102
{ACAD_REACTORS
330
F5C
102
}
330
F5C
100
AcDbXrecord
280
     1
102
SHADEPLOT
 70
     1
102
SHADEPLOTRESLEVEL
 70
     2
102
SHADEPLOTCUSTOMDPI
 70
   300
  0
XRECORD
  5
F61
102
{ACAD_REACTORS
330
F60
102
}
330
F60
100
AcDbXrecord
280
     1
102
SHADEPLOT
 70
     1
102
SHADEPLOTRESLEVEL
 70
     2
102
SHADEPLOTCUSTOMDPI
 70
   300
  0
ENDSEC
  0
EOF
